» » »

John Barry, Somewhere In Time Tabs (ver.1)

Artists:  A B C D E F G H I J K L M N O P Q R S T U V W X Y Z # 

Somewhere In Time Tabs (ver.1)

John Barry Tabs
Rating:
5/5 (3 votes)
Somewhere In Time lessons Tabs too difficult? Try these video lessons and learn fast
                               
Classical Guitar

   INTRO
E|-------------------------------------------------------------------------------|
B|-----------0--------------0----------------------------------------------------|
G|---------0---0-2--2-0---0---0-2--2-0-------------------------------------------|
D|-------------------------------------------------------------------------------|
A|-------3--------------3--------------3~----------------------------------------|
E|-------------------------------------------------------------------------------|


   VERSE

E|----------0-7----------------------8---7-------------------0-0-----------------|
B|--------------0---0-------------------------8\\----------3-----3---------3-----|
G|---5--7---------0----------------------5--------------2---------------2--------|
D|-------------------------------------------7--------0------------3-2-0---------|
A|----------------------7----------7-7-----7-------------------------------------|
E|------------8-------8----8-7---5-----------------------------------------------|


E|-----------------0-------0-------------7\\-----3-------------------0-/-1-/-3---|
B|-------0-1-3---3---3---3---3-----1--0--------------0---------------0-/-3-/-5---|
G|---2---------2-------2---------2-----------------0---0-2--2-0---0--0-/-0-/-0---|
D|-----------0-----------------0-------------------------------------------------|
A|-------------------3-------2-------------------3--------------3----------------|
E|------------------------------------3------------------------------------------|


E|--5----------------------8/10--8h10p8--7/8-------8-----------7/8-7-------------|
BI--5-r-----5------------------------------------5---8----------------10---------|
G|--6-i---6------------------------------------5---------------------------------|
D|--5-n-5-------7----------------------------5----------7-5-3--------------------|
A|--8-g-------8----8-7---5--------------------------------------------------------|
E|--5----------------------------------------------------------------------------|


E|--7--------------7-----------------------------------10--13--------------------|
B|---------7-9--9---------7-7-7-9—10/12-12-------10-12---------------------------|
G|-------9------------------------------------12---------------------------------|
D|-----9----------------9------------------12------------------------------------|
A|--7-----------------9-----------------12---------------------------------------|
E|-----------------7----------7--------------------------------------------------|


           REPEAT THE VERSE

E|--12+--------12+-------8----------8---------8----------12\------10-----10-----------|
B|--------------------10---10----10---10---10---------------------10--10----10--------|
G|-----18+-12+------0-----------------------------9--10-----------10------------------|
D|-----------------------------------------------------------------------------10-----|
A|-------------0--------------10---------8--------------------------------------------|
E|------------------------------------------------------------------------------------|


E|-----10---------10--------10\\---8-----5-8-----5-8------8/10-7-----7----------7—12+-|
B|--10----10---10----------------------5-------5-------5---------10---------7-9-------|
G|--------------------7--9-----------5-------5-------5--------------------9-----------|
D|-----------9-----------------------------6-------6--------------------9-------------|
A|---------------------------------0---------------------------------7----------------|
E|------------------------------------------------------------------------------------|









         ENDING

E|--------0-7----------------------8---7--------------10--------12-12-------------13~-|
B|------------0---0----------------------------8//----10-----10-----------------------|
G!---5--7-------0----------------------5--------------10--10--------------------------|
D|-----------------------------------------7------------------------------------------|
A|--------------------7----------7-7-----7---------------------------12--8------------|
E|----------8-------8----8-7---5--------------------------------------------12--10----! 


E|--13---12~----15~~---------------------------------------------~----r---------------|
B|--12-------------------------0--------------0------------------~----i---------------|
G|--12-----------------------0---0-2--2-0---0---0-2----2-0~------~----n---------------|
D|--------------------------------------------------------------2~--l-g---------------|
A|-------------------------3--------------3---------------------3~--e-----------------|
E|--------------------------------------------------------------3~--t-----------------|



Legend ;

+ = harmonic
~ = vibrato
/ = slide up
\ = slide down
            

comments powered by Disqus
↑ Back to top | John Barry Tabs for Somewhere In Time. Lyrics for acoustic guitar and electric guitar. Tablatures and chords are parodies/interpretations of the original songs. You may use it for private study, scholarship, research or language learning purposes only