» » »

Bend It 'til It Breaks Tabs (ver.1)

Artists:  A B C D E F G H I J K L M N O P Q R S T U V W X Y Z # 

Bend It 'til It Breaks Tabs (ver.1)

John Anderson
Rating:
0/5 (0 votes)

Hard to play? Try these video lessons and learn fast.
                Hola  this  is  el niño again here is something  of
John Anderson 

you can play( Bm-D-A-A7 on verse)& (Em-G-D-A-A7 on chorus)

E---|---------------0-----------------------3--------|
B---|-------------0---0------------------------0-----|
G---|-----------0-----------2--------0h2h4--------2--|
D---|---------2-------------------0------------------|
A---|------------------------------------------------|
E---|-3-2--0-------------2-----3---------------------|

E---|----------2--0---------------------|
B---|-------3-----------3-----2--3------|
G---|----2------------------------------|
D---|-0--------------0--------2--2------|
A---|----------------------0------------|
E---|-----------------------------------|

E---|---------------0-----------------------3----------|
B---|-------------0---0------------------------3--0----|
G---|-----------0-----------2--------0h2h4-----------2-|
D---|---------2-------------------0--------------------|
A---|--------------------------------------------------|
E---|-3-2--0-------------2-----3-----------------------|


E---|----------2--0---------------------|
B---|-------3-----------3-----2--3------|
G---|----2------------------------------|
D---|-0--------------0--------2--2------|
A---|----------------------0------------|
E---|-----------------------------------|
            
Hard to play? Try these video lessons and learn fast. | Correct




comments powered by Disqus
↑ Back to top | Tablatures and chords are parodies/interpretations of the original songs. You may use it for private study, scholarship, research or language learning purposes only