>
 >
Chorale

Chorale Guitar Tabs

Johann Sebastian Bach - Chorale chords, tabs, tablatures, lyrics

Guitar lessons | Add/correct | Request | Top 50 tabs Artists:  A B C D E F G H I J K L M N O P Q R S T U V W X Y Z 0-9

Chorale Guitar Tabs – Johann Sebastian Bach

CD, Sheet music, Poster

Do you like Chorale? Share with your friends now
Tabs
E-|---Song:-Chorale--------------------------------|
A-|---Composer:-Johann-Sebastian-Bach--------------|
D-|---Transcription-by:Christian Liang-------------|
E-|---Enjoy!---------------------------------------|


Chorale Johann Sebastian Bach (1685-1750)

Chorale: a hymn, esp. one with strong harmonization:
a choir in a church. Common theme for wedding.
Play Part A (twice) followed by Part B (twice)

Tip
If you find the multiple finger plucking confusing,
strum the chords with you thumb. Sweep thumbs
downwards over the group of strings.


[1] Part A

E|-------------------0----|-5-----------4----------|
B|------------------------|-------------0----------|
G|------------------------|------------------------|
D|------------------------|-------------2----------|
A|------------------------|-------0----------------|
E|------------------------|-------------------0----|

R                    a      a     p     a     p
                                        m
                                        p

L                           4           4
                                        1

[3]
                            II.........
E|-5-----------------0----|-------------------0----|
B|-------2-----3----------|-2-----------0----------|
G|------------------------|-2----------------------|
D|------------------------|-2----------------------|
A|-4-----0-----2----------|-0-----0----------------|
E|-------------------4----|-------------4----------|

R  a     m     m     a      a     p     m     a
   p     p     p     p      m           p
                            i
                            p

L  4     1     2     3      1           3
   2           1            1
                            1

[5]II.....................

E|-------------2----------|-------------7-----5----|
B|-2-----------2----------|-4--2-h-0---------------|
G|-2-----------2----------|------------------------|
D|-2----------------------|------------------------|
A|------------------------|-2-----------------0----|
E|-5-----------2----------|-------------4----------|

R  a           a            m  m        a     a
   m           m            p
   i           i
   p           p

L  1,1,1,4     1,1,1,1      4  2        4     4
                            1           1

[7]

E|-4--2-h-0----2--0-------|-0---------------------||
B|-0-----------0-----4----|-0--------------------*||
G|------------------------|-1---------------------||
D|------------------------|-2---------------------||
A|-2-----------2----------|-------2--------------*||
E|------------------------|-------------0---------||

R  a  a        a  a  m      a     p     p
   m           m            m
   p           p            i
                            p

L  4  2        2      4     1     2
   1           1            3


[9] Part B
E|------------------------|------------------------|
B|------------------------|-0-----------------2----|
G|----------------1-h-2---|------------------------|
D|------------------------|-------2----------------|
A|------------------------|------------------------|
E|------------------------|-------------0----------|

R                 i         m     i     p     m

L
                  1   2           1           2

[11]
                            II.........
E|-------------------0----|-------------2----------|
B|-3----------------------|-2-----------3-----3--2-|
G|------------------------|-2-----------2----------|
D|-------2----------------|-2-----4--2--0-----0----|
A|------------------------|-0----------------------|
E|-------------0----------|------------------------|

R  m     i     p     a      a     m  m  a     m  m
                            m           m     p
                            i           i
                            p           p

L  3     1                  1     3  1  2     3  2
                            1           3
                            1           1

[13]

E|-------------------0----|-2-----------4----------|
B|-0----------------------|-3----------------------|
G|-1----------------------|-2----------------------|
D|-2----------------------|-0----------------------|
A|-------2-----------4----|-------------2----------|
E|-------------0----------|------------------------|
RH m     p     p     a      a           a
   i                 p      m           p
   p                        i
                            p
LH 3     2           4      2           4
   1                        3           1
                            1

[15]

E|-5-----4--2--0----------|------------------------|
B|-------------------3----|-2-----------0----------|
G|------------------------|-2-----------1----------|
D|-------------------0----|-2-----------2----------|
A|-4----------------------|------------------------|
E|------------------------|-------------0----------|

R  a     m  i  m     m      m           a
   p                 p      i           m
                            p           i
L  4     3  1        4      3           1
   2                        2           3
                            1

[17]

E|-----------------------||
B|----------------------*||
G|-2---------------------||
D|-------2---------------||
A|-0-----------0--------*||
E|-----------------------||

R  m     i     p
   p

L  3     2





Comments


Popular Johann Sebastian Bach tabs & chords
Cello Suite No 1 In G Maj Bass Tabs
Bwv 1011 - Sarabande Tabs
Bwv 1068 Air On The G String Tabs
Bwv 825 Gigue Piano Partita In B Flat Tabs
Bwv 846 - Prelude 1 In C Tabs
Bwv Anh 114 Minuet In G Tabs
Gigue - Lute Suite No3 Bwv 995 Tabs
Jesu Joy Of Mans Desiring Tabs
Little Fugue In Gm Bwv 578 Tabs
Minuet In G Tabs


Song lyrics



↑ Back to top | Tablatures and chords are parodies/interpretations of the original songs. You may use it for private study, scholarship, research or language learning purposes only
© 2014 AZChords.com Contact us | Privacy policy | DMCA | Add/correct tabs | Request tabs | Top 50 tabs