» » »

Johann Sebastian Bach, Bwv 1010 Bourree Tabs (ver.1)

Artists:  A B C D E F G H I J K L M N O P Q R S T U V W X Y Z # 

Bwv 1010 Bourree Tabs (ver.1)

Johann Sebastian Bach Tabs
 Rating:
4/5 (4 votes)
Bwv 1010 Bourree lessons Tabs too difficult? Try these video lessons and learn fast
1
                \---Song:-BWV1010-Bourree-II----------\
 \---Composer:-Johann-Sebastian-Bach---\
  \---Transcription-by:Christian Liang--\
/---Enjoy!----------------------------/

       BWV 1010 (Bourree II) by Johann Sebastian Bach (1685-1750)

Adagio 75 bpm
Key A minor
Time 2/2

[1]                                     II4............
E|-----------------|-----------------|-----------------|-----------------|
B|-----------------|------0=======---|------2=======---|------0----------|
G|--------------2--|--2-----------1--|--2h4---------2--|--------------1--|
D|-----------------|--0======-2=====-|--4=======-------|--0======-2=====-|
A|--------------4--|-----------------|----------4=====-|-----------------|
E|-----------------|-----------------|-----------------|-----------------|
    |   |   |   |     |   |   |   |     |   |   |   |     |   |   |   |  
L               1     2           1     1 4 1   3   1             2   1
                3             3         3

[5] II4...........                                        II5....
E|----------------|||-------------0--|--0---2======-0--|-----------------|
B|---------------*|||*---------------|-----------------|--3p2-3---0---3--|
G|--2============-|||----------------|-----------------|-----------------|
D|------2---------|||----------------|--0=======-------|-----------------|
A|----------0----*|||*------------0--|----------4=====-|--2=======-------|
E|----------------|||----------------|-----------------|----------4=====-|
    |   |   |   |     |   |   |   |     |   |   |   |     |   |   |   |  
L   1   1                                   1   3         2 1 2   3   2
                                                          1       


[9]                                                       II4............
E|--0======--------|-----------------|-----------------|-----------------|
B|--0==-3======-2--|--0--------------|------0=======---|------2======----|
G|--1======-2=====-|----2p1-------2--|--2-----------1--|--2h4---------2--|
D|-----------------|--------4-2p0----|--0======-2=====-|--4=======-------|
A|-----------------|--------------4--|-----------------|----------4=====-|
E|--0======-2=====-|--0=============-|-----------------|-----------------|
    |   |   |   |     |   |   |   |     |   |   |   |     |   |   |   |  
L   1   4   2   3       2 1 4 2   1     1       3   1     3 4 1   3   1
            1                     3                       1


[13]                  II4...........
E|-----------------|----------------||
B|------0----------|----------------||
G|--------------1--|--2===========-*||
D|--0======-2------|--2===========--||
A|-----------------|--0===========-*||
E|----------0=====-|----------------||
    |   |   |   |     |   |   |   | 
L           2   1     1
                      1



Legend
Left                                       
p = pull off               
h = hammer on                     
= = suspend/hold Note      
V3 = Barre at fret 5 (Bottom 3 strings)
            
Submit corrections

comments powered by Disqus
↑ Back to top | Johann Sebastian Bach Tabs for Bwv 1010 Bourree. Lyrics for acoustic guitar and electric guitar. 1 Tablatures and chords are parodies/interpretations of the original songs. You may use it for private study, scholarship, research or language learning purposes only