» » »

Badinerie Tabs (ver.1)

Artists:  A B C D E F G H I J K L M N O P Q R S T U V W X Y Z # 

Badinerie Tabs (ver.1)

Johann Sebastian Bach
Rating:
0/5 (0 votes)

Hard to play? Try these video lessons and learn fast.
                (Intro)
Badinerie intro tabbed for guitar
=================================



-----------------------------|
-----------------------------|
-4---7p4-----4---------------|
---------4-----4-----4-------|
----------------h5----h5-----|
-------------------------7---|

-------------------------------|
-------------------------------|
-------------------------------|
-------------------0-2---------|
---2-5-2-4-2-4-2-1-----4-5---2-|
-2-----------------------------|

-----------------------------|
-----------------------------|
-4---7p4-----4---------------|
---------4-----4-----4-------|
----------------h5----h5-----|
-------------------------7---|

I haven't figured out the rest, but it's better than nothing
            
Hard to play? Try these video lessons and learn fast. | Correct




comments powered by Disqus
↑ Back to top | Tablatures and chords are parodies/interpretations of the original songs. You may use it for private study, scholarship, research or language learning purposes only