» » »

Badinerie Tabs (ver.3)

Artists:  A B C D E F G H I J K L M N O P Q R S T U V W X Y Z # 

Badinerie Tabs (ver.3)

Johann Sebastian Bach
Rating:
5/5 (3 votes)

Hard to play? Try these video lessons and learn fast.
                'Badinerie' by Johann Sebastian Bach

Arranged for guitar by Dave Price-Williams

I've split it into 'part one' and 'part two' so you don't get lost. If you know the song 
know where I've done this (when the main riff changes from Bm to F#m).


PART ONE:

   /        /       /       /       /       /         /         /

e||7---10p7-----7------------------|------------------------------------|
B||---------7-----7-----7----------|------------------------------------|
G||-----------------7-----7--------|----7------------------9----7-------|
D||-------------------------9------|--9---9s11-9-11-9-8h11---11-----9---|
A||--------------------------------|9-----------------------------------|
E||--------------------------------|------------------------------------|


  /        /       /       /       /       /       /       /
                                                           *-3-*
e|7---10p7-----7------------------|----------------7-----------------|
B|---------7-----7-----7----------|----------------------------------|
G|-----------------7-----7--------|7---7---7---7-------7---7h9p7-6---|
D|-------------------------9------|--9-------9-----------------------|
A|--------------------------------|----------------------------------|
E|--------------------------------|----------------------------------|


  /       /       /        /          /       /       /       /
                           *-3-*
e|----------------10-----------------|----5---------------7-------------|
B|7---7---7---7--------7---7h8p7-6---|--7---7s9-7-9-7-6h9---9-10-9-10-9-|
G|--7-------7------------------------|6---------------------------------|
D|-----------------------------------|----------------------------------|
A|-----------------------------------|----------------------------------|
E|-----------------------------------|----------------------------------|


  /           /           /          /

e|---------------------------9----------10-------|
B|---10----------12------------------------------|
G|11----11p10h11----11p10h11---11p10h11----11p10h|
D|-----------------------------------------------|
A|-----------------------------------------------|
E|-----------------------------------------------|


  /          /         /           /
                            *-3-*
e|---10-9----9-----------------------------||
B|--------12---10-9----10---9h10p9---------|| Go back
G|11----------------11-------------11------||         to start of
D|-----------------------------------------||                     part one!
A|-----------------------------------------||
E|-----------------------------------------||

PART TWO:

   /       /       /       /       /       /       /       /

e||2---5p7-----2------------------|--------0-----2-5---3-2-3---0---|
B||--------2-----2-----2----------|1--p0-------4-------------------|
G||----------------2-----2--------|--------------------------------|
D||------------------------4------|--------------------------------|
A||-------------------------------|--------------------------------|
E||-------------------------------|--------------------------------|


  /        /       /       /       /       /       /       /
                                                      h p h p h p
e|-----7--------------------------|----2---0---0-----0-3-0-2-0-2-0-|
B|8------8-5---8p5-----5----------|--3---3---3---3p2---------------|
G|-----------------6-----6--------|2-------------------------------|
D|-------------------------7------|--------------------------------|
A|--------------------------------|--------------------------------|
E|--------------------------------|--------------------------------|


  /       /       /       /        /       /       /         /
                                                       *-3-*
e|------------------5-------7-----|--7-5---5-------------------------|
B|--7-------8---------------------|------8---7-5---7---5h7p5---------|
G|7---7p6h7---7p6h7---7p6h7---7p6h|7-------------7-----------7-------|
D|--------------------------------|----------------------------------|
A|--------------------------------|----------------------------------|
E|--------------------------------|----------------------------------|


  /       /       /        /        /       /       /       /
                           *-3-*                            *-3--------|
e|----------------10---------------|----------------9------------------|
B|8p7h8---8p7h8-------7---7h8p7----|7---7---7---7-------5---5h7p5------|
G|------------------------------9--|--9-------9-------------------7----|
D|---------------------------------|-----------------------------------|
A|---------------------------------|-----------------------------------|
E|---------------------------------|-----------------------------------|


  <>
  /              /       /         /       /
       *--3--*              *-3-*             *-3------|
e|--------------|--------------------------------------|
B|12---15p12p10-|-----------10p8p7---------------------|
G|--------------|12~~~-------------9~~~-------11p9p7---|
D|--------------|--------------------------------------|
A|--------------|--------------------------------------|
E|--------------|--------------------------------------|


  /        /       /       /        /         /       /       /
                                        *-3-*
e|---0h3p0-------------------------|--------------------------7-------|
B|---------1p0h1p0-----------------|----------5---2-3-2-----7-------7-|
G|-----------------3---------------|4---2h4h6------------s7-------7---|
D|10-------------------4---5---4---|----------------------------------|
A|---------------------------------|----------------------------------|
E|---------------------------------|----------------------------------|


  /       /       /       /

e|7---0---------------------------||
B|------------2-3-2---0~~~~~~~----||  Go back
G|--------7-----------------------||          to start of
D|--------------------------------||                      part two!
A|--------------------------------||
E|--------------------------------||


...and that's it! Please vote and/or comment, cheers.
            
Hard to play? Try these video lessons and learn fast. | Correct




comments powered by Disqus
↑ Back to top | Tablatures and chords are parodies/interpretations of the original songs. You may use it for private study, scholarship, research or language learning purposes only