>
 >
Aria Goldberg

Aria Goldberg Guitar Tabs

Johann Sebastian Bach - Aria Goldberg chords, tabs, tablatures, lyrics

Guitar lessons | Add/correct | Request | Top 50 tabs Artists:  A B C D E F G H I J K L M N O P Q R S T U V W X Y Z 0-9

Aria Goldberg Guitar Tabs – Johann Sebastian Bach

CD, Sheet music, Poster

Do you like Aria Goldberg? Share with your friends now
Tabs
Aria J.S Bach                           raphael belhache
      |       |        |^          |       |       |
E||---3-------3--------535----7-|--5---3-2-----------------|
B||--------------------3--------|----------5---3-----------|
G||*----------4-----------------|----------2---------------|
D||*--5-------------------------|--4---------------0-------|
G||-----------------------------|--------------------------|
D||-----------------------------|--------------------------|


   |       |       |          |       |       |
|---------------------------|-------------------------|
|-----------^---^-^-tr------|-^-----------------------|
|---^^-----20-^20202020---0-|-20---^------------------|
|--545-------45---------4---|---4-542-2---0-----------|
|----------0-------6--------|-----------------2---5---|
|--2------------------------|-0-------4---------------|


  |       |       |         |       |       |    ^^^
|------------------^------|---------------------3202-|
|-3-------3-------535---6-|-5---3---0----------------|
|-----------------0-------|-------5-----2------------|
|---------0---------------|---------2-----------0----|
|-4-----------------------|-5---------------2--------|
|-------------------------|--------------------------|


  |^   ^  |^      |         |       |       |
|-32--53--20--------5-----|--------------------------|
|-------------3-----------|-0------------------------|
|-----5--------5--5-----5-|--0---------^-------------|
|-2-------0---------------|-----4---4-545------------|
|-----5-------4-2-0-----0-|-0---2---4--------^-------|
|-------------------4-2---|-------------0---202---4--|


  |       |       |         |       |       |
|------------------^------|-------------------------|
|-0-------0-------202---3-|-3-2-----3---------------|
|-------------------------|-----4-2-----------------|
|-----------------2-------|-------------------------|
|---------4---------------|-2--------tr---------4---|
|-5-----------------------|---------5454-2--4-------|


  |       |^^^ ^^^|          |       |        |
|-3-------532353535353-2-3-|-------0------tr----------|
|-5----------------tr------|-8---7---2---3232-----5---|
|-4---4--------------------|--------------------------|
|-2-------2---2---4----0---|-----0---2----------------|
|----------------------0---|-6-----------4----2---0---|
|--------------------------|-7------------------------|


  |       |       |          |       |       |
|-5-3-2-----------------^--|---------------^-------0--|
|-------5-3------------01--|-0-----------3-2------3---|
|-------------2------------|---2-0--------------------|
|-----------------0--------|-------4-2-------2--------|
|---------2----------------|---------4----------------|
|-4------------------------|-5------------------------|

  |       |       |         |       |       |
|---------3---------------|-------^^----------------||
|-3-2---------0-------2---|-2-3--5322---3-----------||
|-----4-2---------0-------|------------------------*||
|-4-------2-----4---------|-0-------4-------0------*||
|-2-----------------------|-------------2-----------||
|-------------------------|-------------------------||


   |        |       |          |       |       |
|-------------------------0--|-0-------------------3---|
|---^--------^-^-^^^---0-3---|---3---0-----------------|
|*-202------42024242--2-5----|-----5---2---0-----------|
|*-0----2---4----------------|---------0---------------|
|-------------------5--------|-4---5-------2---4-------|
|----------------------------|-------------------------|


  |       |       |          |       |       |
|-2-----2----^--------5753-|-5-----2-----------------|
|---5----44-545------------|---------5---4-------0---|
|---------0-------^--------|-------------------------|
|-----2-----------424-2----|-1---2---4---------------|
|-5-----------4---2--------|-4-----------2---0-------|
|--------------------------|---------------------4---|


   |^      |       |         |^      |       |
|-023---2-2---0--------^---|-30---^------------------|
|-------------------0-10-0-|-----74--4---5-----------|
|-----2----^------0-----2--|---------^---------0-----|
|-2-------545-4---0--------|-----7---545-4-------4-2-|
|--------------------------|-5---------------4-------|
|--------------------------|-------------------------|


  |       |    ^^ |         |       |       |
|-------0-0---235-3---2---|-2-----2-----------------|
|-----------4-----0-------|---5----44---5-----------|
|-------------5-------2---|---------0---------------|
|-4-------------------1---|-2---------------2---0---|
|-2---5---4---2---4-------|-----4-------4-----------|
|-------------------------|---------2---------------|


  |       |       |         |       |       |
|-------------------------|-------------------------|
|-5---3---0-----------0-1-|--^^--^----------------0-|
|-------5-----2-----------|-754-54--2---0-------2---|
|---------2---------------|-----4-7-2-0-2-4-5-4-5---|
|-5---------------2-------|-4-----------------------|
|-------------------------|-------------------------|


  |       |       |         |       |       |
|-------------------------|--------------------0-----|
|-1-3-1-0-1-------1-0-----|--1-3-1-0-1-------1---3-1-|
|-----------2---2-----2-0-|------------2---2---------|
|-----2-------2-----------|--4-------0---4-----------|
|-2-------2---0-----------|------2-------5---4---2---|
|-----------------4---2---|--0-----------------------|


  |       |       |         |       |       |
|-------------------------|----------0-------0---2-3-|
|-0-1-0---0-------0---1-3-|--5-6-5-----1---1---1-----|
|-0-----2---0---0---0-----|--------7-5---4---2---0---|
|-----0---5---3---2---0---|------5-------5-----------|
|-0-----------7-----------|--5-----------------------|
|-------------------------|--------------------------|


  |       |       |         |       |       |
|-5-----------------------|---------------------------||
|-----0---0-1-3---0-------|---------------------------||
|---5---2-0---4-----2-0---|--0-----------0-------^---*||
|-4---0---------5-------4-|------------0---4-4---5---*||
|---------------------7---|--0-5-4-2-4-------0--------||
|-------------------------|---------------------------||





Comments


Popular Johann Sebastian Bach tabs & chords
Andante Tabs
Bmv 1006a - Prelude Tabs
Bwv 1007 Prelude In D Tabs
Bwv 1080 - Contrapunctus Ii Tabs
Bwv 645 Sleepers Awake Tabs
Bwv 805 - Duetto Iv In A Minor Tabs
Bwv 997 Gigue Tabs
Bwv 998 - Fugue Tabs
Prelude Bmv 999 Tabs
Prelude No 1 In C-major Well Tempered Clavier Tabs


Song lyrics



↑ Back to top | Tablatures and chords are parodies/interpretations of the original songs. You may use it for private study, scholarship, research or language learning purposes only
© 2014 AZChords.com Contact us | Privacy policy | DMCA | Add/correct tabs | Request tabs | Top 50 tabs