>
 >
Allemande

Allemande Guitar Tabs

Johann Sebastian Bach - Allemande chords, tabs, tablatures, lyrics

Guitar lessons | Add/correct | Request | Top 50 tabs Artists:  A B C D E F G H I J K L M N O P Q R S T U V W X Y Z 0-9

Allemande Guitar Tabs – Johann Sebastian Bach

CD, Sheet music, Poster

Do you like Allemande? Share with your friends now
Tabs
Johann Sebastian Bach

Allemande from Lute Suite No 1 BWV 996 in E minor


E||--------------------|--------------------------------0-|
B||-----------------0--|--0---------5p3---------------0---|
G||*-------------------|----------------5-4p2-------0-----|
D||*-------------------|----------2-----------5p4-2-------|
A||--------------------|--------2-------------------------|
E||--------------------|----0h3---------------------------|


----------------------------------|------0---------------------------|
--4---------5-4h5-7-0-5-8-7---4---|----0-------0-1h3-1p0---------3---|
----------4-----------------6---2-|--0-------------------2-0---2---2-|
--------4-------------------------|----------2---------------4-------|
------6-------4---6---7-------2---|--------2---------0---3---5---5---|
----7---------------------5-------|--0-----------0-------------------|


------------------0---------------|----------------------------------|
--0---------3-1-0---0-1h3-1p0-----|----------------0---0-------0-----|
------0-----------------------2p0-|--------------0---2-----0---------|
----4---0-2-----0-----------------|--4-2p0-----0---------2---4---4h7-|
------------2-3---3---------------|--------3-2-------3---4---5---6---|
--3-------------------------------|----------------------------------|


------------------------------0---|--2---7--------0------------------|
--------------------2---2-3-----0-|----0---10-8p7---3-2p0---0-0------|
----------------------------4-----|-------------------0---3-------3--|
--5h7-5-4-2p0---------------------|--0------------4-------2---4------|
--7-----------4-2\1-------2---4---|-----------7----------------------|
----------------------2-----------|------7----------------------2----|


--------------------------------||--------------------|
--0---------------0-------------||---------------4----|
--------------1h3--------------*||*-------------------|
--------1h2h4-------5-4-2-4----*||*-------------------|
----2h4-------------7-6-4-6-----||--------------------|
--------------------------7-----||--------------------|


------------7p5-3-2p0-------------|--0-3-7-----5---------------------|
--4-------------------4-2p0---4---|--------0-5---8p7-5p3-2p0-----2---|
----------4-----------------2-0---|--0---0-------------------2p0-----|
--------4-----------------------4-|----2-------------------------4p2-|
------6---------------------------|----------------------------------|
----7-----------------------------|----------------------------------|


--------------------------------0-|--2h3-2-0------------------------|
--3-------3h5-3-------------------|----------3p2-----------2-2------|
--------2-------5-4p2-------------|--------------4p3-4p3-4-------4--|
--4---4---------------5p4-2p0-----|------------------0---2---4------|
----5-------------------------4-2-|--1-------2---4------------------|
----------------------------------|------2---------------------2----|


----------------------0-----------|----------------------------------|
--------------------0---------0---|--1-------1-----------3-----------|
--4-------------------------1-----|----------2---------2---------2---|
----5p4-2\1---------------2-----2-|--------2-------------------4-----|
--2---------3-2p0-------2---------|----0h3-----2p0---------0h5-----5-|
------------------4-----------0---|----------------3-2---------------|



----------------------------------|------------------------------2h5-|
--0-------0-----------0-----------|--------------0-5-----------2-----|
----------0-----------------------|--0---------0-----5-------2-------|
--------0---5p4-2\1-4-------1h4---|----------2-------------2---------|
------2-------------------2-----2-|--------2-----------0h3-----------|
----3-------------------2---------|----0h3---------------------------|



------------------0-------------------|-------------------0------------||
--4-----------4-----------------------|--------------------------------||
----------4-6---4---0-----------------|------------4-5-7~---2-1-------*||
--------4-----4---2---4-2-1h2p1h2---2-|--2---4-6-7--------------4--2--*||
------6-------0-------0-3-2-------2---|---------------------3-2-0------||
----7-------------3-------------------|----0-----------------------4---||





Comments


Popular Johann Sebastian Bach tabs & chords
First Sonata Bass Tabs
Bwv 1080 - Contrapunctus Xii Canon Alla Ottava Tabs
Bwv 34 - My Heart Ever Faithful Tabs
Bwv 805 - Duetto Iv In A Minor Tabs
Bwv 825 Gigue Piano Partita In B Flat Tabs
Bwv 995 Gavotte 2 Tabs
Cello Suite No 6 In D Bwv 1012 Tabs
Prelude Bvw 999 Tabs
Prelude In Cm Tabs
Terracata Intro Tabs


Song lyrics



↑ Back to top | Tablatures and chords are parodies/interpretations of the original songs. You may use it for private study, scholarship, research or language learning purposes only
© 2014 AZChords.com Contact us | Privacy policy | DMCA | Add/correct tabs | Request tabs | Top 50 tabs