» » »

Johann Sebastian Bach, Agnus Dei Tabs (ver.1)

Artists:  A B C D E F G H I J K L M N O P Q R S T U V W X Y Z # 

Agnus Dei Tabs (ver.1)

Johann Sebastian Bach Tabs
Rating:
5/5 (5 votes)
Agnus Dei lessons Tabs too difficult? Try these video lessons and learn fast
                E|----------------|1-------------1-|0---3-------1-0-|1---------------|
B|----------------|--3--------3----|--2-------------|--3-4-------3---|
G|------------2---|----0-----------|----------------|----------------|
D|0---------------|0---------------|----------------|0---------------|
A|--------4-------|------2---------|4--------0------|----------------|
E|----------------|----------------|----------------|---------3------|


E|------------0---|1---------------|----1---0---4---|5---0-----------|
B|2---0-----------|----2---3-------|----------------|--------1---0---|
G|--------2-------|------------2---|1---------------|--------------2-|
D|----------------|0---------------|--------0-------|--------2-------|
A|0-------4-------|----------------|----------------|3---0-----------|
E|----------------|--------1-------|0---------------|------------0---|


E|------------3---|2-5-8-------6-5-|6-3-0-----------|--0-3-------1--0|
B|----------------|----------------|------------3---|2---------------|
G|2---------------|----------------|0---------------|----------------|
D|------------1---|0-------4-------|----------------|----------------|
A|0---2---3-------|----------------|--------1-------|0-------4-------|
E|----------------|----------------|----------------|----------------|


E|1---------------|------------0---|--0-6-------5-3-|1---0-----------|
B|--3-------------|0-3-6---------3-|2---------------|------3-----2---|
G|----1-------2---|----------------|----------------|--------2-------|
D|0---------------|----------------|----------------|0---------------|
A|----------------|----------------|0-------4-------|--------0---0---|
E|--------1-------|4-------0-------|----------------|----1-----------|


E|----------------||
B|3---------------||
G|----------------||
D|3---------------||
A|5---------------||
E|----------------||


H A V E  F U N
            

comments powered by Disqus
↑ Back to top | Johann Sebastian Bach Tabs for Agnus Dei. Lyrics for acoustic guitar and electric guitar. Tablatures and chords are parodies/interpretations of the original songs. You may use it for private study, scholarship, research or language learning purposes only