» » »

Joe Walsh, Turn To Stone Tabs (ver.1)

Artists:  A B C D E F G H I J K L M N O P Q R S T U V W X Y Z # 

Turn To Stone Tabs (ver.1)

Joe Walsh Tabs
 Rating:
2.9/5 (9 votes)
Turn To Stone lessons Tabs too difficult? Try these video lessons and learn fast
                got the guitar tab up father quickly. this is the intro solo. it might be wrong because 
the distortion on it. but i think its rightits all on the high e string

E-12--8-10-8-12-------6-7-9h10p99-5-7------12-8-10-8-15-14-12-10----6-7-9h10p99-5-7

this is the other guitar in the intro
e------------------------------------------------------------------------|
b------------------------------------------------------------------------|
g-7-7--5-5-3-3----3-3--5-5-7-7-----7-7--5-5-5-5-3-3--3-----3-3--5-5------|
d-7-7--5-5-3-3----3-3--5-5-7-7-----7-7--5-5-5-5-3-3--3-----3-3--5-5--5x2-|
a-5-5--3-3-1-1----1-1--3-3-5-5-----5-5--3-3-3-3-1-1--1-----1-1--3-3--5---|
e--------------------------------------------------------------------3---|

verse is just an F power chord that goes in the rythem with the lyrics.
except for this riff 1 andriff 2
e--------------                 e-10-10-8----8--10-|
b--------------                 b---------10-------|
g-3-3-3-3-3----                 g------------------|2nd time dont play last
d-3-3-3-3-3-3--                 d------------------| 10
a-1-1-1-1-1-3--                 a------------------|
e-----------1--                 e------------------|

                             riff 1
hey, now , the wells run dry


pages of your book on fire

read the writing riff 2  on the wall riff2
                        riff1
hoedown,  its a showdown

everywhere you look where fighting riff2 hear the call riff 2
g power chord
and you know its getting stronger
a power chord
dont think they can last much longer

turn to stone
the riff at the end of stone is this lets call it riff 3

e-1------1-----1----------1-----1----1-----1-----1------1-----1------1----1-|
b-3--3-----3---3----5/6-3---3---3----3--3----3---3--3-----3---3--3-----3--3-|
g-2-2--------2-2----5/6-3-----2-2----2-2-------2-2-2--------2-2-2--------22-|
d-0-------------------------------------------------------------------------|
a-0-------------------------------------------------------------------------|
e---------------------------------------------------------------------------|

then the intro including the solo again

then the verse again this is only the lyrics

Well theres a change in the wind
You know the signs don't lieriff1
Such a strange feeling and I dont know why
Its takin... such a long time ...
          ^rif2                 ^rif2
Backyard people and they work all day
Tired of the speeches rif1
And the way the reasons they keep changin... rif 2
Just to make the Words Rhyme...rif2
g
And you know its getting stronger,
a
Cant fake 'em out much longer
Turn to stone

riff 3

theres more lyrics, but just look em up. hope the tab helped you!!
            
Submit corrections

comments powered by Disqus
↑ Back to top | Joe Walsh Tabs for Turn To Stone. Lyrics for acoustic guitar and electric guitar. Tablatures and chords are parodies/interpretations of the original songs. You may use it for private study, scholarship, research or language learning purposes only