» » »

Joe Walsh, Told You So Bass tabs (ver.1)

Artists:  A B C D E F G H I J K L M N O P Q R S T U V W X Y Z # 

Told You So Bass tabs (ver.1)

Joe Walsh Tabs
 Rating:
4/5 (4 votes)
Told You So lessons Tabs too difficult? Try these video lessons and learn fast
1
                Album:You Bought It-You Name It

    Intro                                                   
G-----------|----------|----------|------------|-|
D-----------|----------|----------|------------|-|
A---0-------|-0--------|-0--------|-0----------|-|
E-----------|----------|----------|------------|-|
                                                  
      Main              3x          Vocals Start       3x                                          
G---|-----------------------|-----|-----------------------|---------------|-|
D---|*---7---7---7---7-----*|-----|*---7---7---7---7-----*|---------------|-|
A---|*-0---0---0---0---2-3-*|-3-5-|*-0---0---0---0---2-3-*|-3-5--7-5-3----|-|
E---|-----------------------|-----|-----------------------|---------------|-|
                                                                             
Stick Your Nose                                                                   
G----------------------|----------------------|---------------------|
D----------------------|---7---7---7---7------|---7---7---7---7-----|
A--------------2-3-----|-0---0---0---0------3-|-0---0---0---0---2-3-|
E---3-5-5-3-5----------|------------------3---|---------------------|
                                                                     
        Intro To Bridge                         On Your Own Time                             
G-------|-------------|-------------------------|---------------|
D-------|-------------|-----------5-------------|---------------|
A---3-5-|-5-3-7-5-3---|-----7-5-7------5--------|---5-7-7---0-7-|
E-------|-------------|-0------------7---7-3--0-|-0-------------|
                                                                 
 Nobodys Cursed Forever  Stop                       Ect                                  
G-----------------------|---|----------------------------|-|
D-----------------------|---|----------------------------|-|
A-----7---7---7---7-----|---|---7---7---7---7------------|-|
E---0---0---0---0-------|---|-0---0---0---0--------------|-|
  Back To Beginning/Follow Song Pattern                                                          
                                                            
   Riff Near End Of Song              End                                       
G-----------------------------------|---------------|-|
D-----7---7-7-7-5-------------------|---------------|-|
A---0---0---------7-2-3-------------|-3-5-----------|-|
E-----------------------------------|---------------|-|
            
Submit corrections

comments powered by Disqus
↑ Back to top | Joe Walsh Bass for Told You So. Lyrics for acoustic guitar and electric guitar. 1 Tablatures and chords are parodies/interpretations of the original songs. You may use it for private study, scholarship, research or language learning purposes only