» » »

Rocky Mountain Way Tabs (ver.4)

Artists:  A B C D E F G H I J K L M N O P Q R S T U V W X Y Z # 

Rocky Mountain Way Tabs (ver.4)

Joe Walsh
Rating:
5/5 (11 votes)

Hard to play? Try these video lessons and learn fast.
                Tuning Standard

e---------------------|
B---------------------|Just keep repeating until Joe
G---------------------|starts to sing
D---9-9------11--9----|
A---7-7-------7--7----|
E---0-0---------------|

e--------------------------------------|
B--------------------------------------|Solo to intro
G--9--9--7---7---7---7---7h9--/12\(9)--|
D----------9---------------------------|
A--------------------------------------|
E--------------------------------------|

e-------------------|
B-------------------|And just keep on repeating
G----2--------------|
D----2-------2------|
A----0-------2------|
E--0---3b(4)-0------|

Solo

e-----------------------------------|
B-----------------------------------|
G--9--9/--9-9-9/--7h9-7-------------|
D-----------------------9-7---------|
A---------------------------10-7~/--|
E-----------------------------------|

e-----------------------------------|
B-----------------------------------|
G--9--9/--9-9-9/--7h9-7-------------|
D-----------------------9-7---------|
A---------------------------10-7~/--|
E-----------------------------------|

e-----------------------------------|
B----------------------8-10-8-------|
G----9-7~~~~6--------9--------9-----|
D--9----------9---------------------|
A---------------7-------------------|
E-----------------------------------|

e------10-----10-----10-----10--|
B--10b----10b----10b----10b-----|just keep repeating
G-------------------------------|then go back to the
D-------------------------------|blues riff again
A-------------------------------|
E-------------------------------|

That's it.
            
Hard to play? Try these video lessons and learn fast. | Correct




comments powered by Disqus
↑ Back to top | Tablatures and chords are parodies/interpretations of the original songs. You may use it for private study, scholarship, research or language learning purposes only