» » »

Rocky Mountain Way Tabs (ver.3)

Artists:  A B C D E F G H I J K L M N O P Q R S T U V W X Y Z # 

Rocky Mountain Way Tabs (ver.3)

Joe Walsh
Rating:
4/5 (4 votes)

Hard to play? Try these video lessons and learn fast.
                                              ROCKY MOUNTAIN WAY                  Brickyard50
                                 Joe Walsh                          FGSSG

  Intro
  ---------------------|
  ---------------------|
  ---------------------|    play four times
  --9-9-11-9--9-9-11-9-|
  --7-7-7--7--7-7-7--7-|
  --0---------0--------|

  --------------------------------------------------------------------------|
  ------------------------------------------------------------------12------|
  --------------13-------------14-13-14----------------7-7-7-7-9-13----13-9-|
  --14-14-12-14----14-14-12-14----------14----14-14-14----------------------|
  --------------------------------------------------------------------------|
  --------------------------------------------------------------------------|

  ---------------------|
  --------------12-----|
  --7-7-7-9--------13--|
  ---------------------|
  ---------------------|
  ---------------------|
   E
  SPENT THE LAST YEAR ROCCKY MOUNITAIN WAY  E A G E
   E
  COUDN'T GET MUCH HIGHER E A G E
   E
  OUT TO PATURE THINK IT'S SAFE TO SAY E A G E
   E
  TIME TO OPEN FIRE (INTO CHORUSRIFF1)-------|
                                      -------|
                                      -------|
                                      -------|
                                      -------|
                                      --3-4--|
           A                       A
  AND WE DON'T NEED THWE LADIES CRYING CAUSE THE STORY'S SAD
  (RIFF2)
  --7-7-7-7-7-7-7-7-7-7-7-7-7-7--|
  --7-7-7-7-9-9-7-9-9-9-9-9-9-9--|
  --7-7-7-7-9-9-7-9-9-9-9-9-9-9--|   E
  --7-7-7-7-9-9-7-9-9-9-9-9-9-9--|
  --7-7-7-7-9-9-7-9-9-9-9-9-9-9--|
  --0-0-0-0-0-0-0-0-0-0-0-0-0-0--|
              A                     A                     B
  CAUSE THE ROCKY MOUNTAIN WAY IS BETTER THAN THE WAY WE HAD

  (RIFF2*

  ---------------------12----------------------------------------------12--|
  --12-12-12--15-15-12-------------------------12---------------15-12------|
  ------------------------14-12-9-7-7-7-7-9--13---13-9-7-7-7-9-------------|
  -------------------------------------------------------------------------|
  -------------------------------------------------------------------------|
  -------------------------------------------------------------------------|

  -------------|
  -------------|
  -------------|
  --7-7-7-7-9--|   E A G E
  -------------|
  -------------|

    E                          E
  WELL HE'S TELLING US THIS TELING US THAT CHANGES IT EVERYDAY  E A G E
    E
  SAYS IT DOESN'T MATTER  E A G E
    E                                     E
  BASES ARE LOADED AND KASSIE'S AT BAT PLAYIN IT PLAY BY PLAY  E A G E
    E
  TIME TO CHANGE THE BATTER(RIFF1)

  CHORUS

 (RIFF2)

  SOLO


  SOLO WITH MOUTH THINGY
  -----------------------------------------------------------------|
  -----------------------------------------------------------------|
  -----------------------------------------------------------------|
  -----------------------------------------------------------------|
  ----5---5----5---5----5-7-----------5---5----5-5-5----5-7--------|
  --7---7----7---7----7-----5-3-0---7---7----7--------7-----5-3-0--|

  ------------------------------------------------------|
  ------------------------------------------------------|
  ------------------------------------------------------|
  ------------------------------------------------------|
  ------5-7-----5-7-5-5--------5-7-----5-7-5-5----------|
  --0-7-----0-7---------5-3--7-----0-7---------7-5-3-0--|

  --7-5-4-2-------------------------------7-5-4-2---------------------|
  --7-5-4-2-----------12-12-12-12---------7-5-4-2---------------------|
  --9-7-6-4-----12-14------------14-12----9-7-6-4--14-16-14-16-14-16--|
  --9-7-6-4--14-----------------------14--9-7-6-4---------------------|
  --7-5-4-2-------------------------------7-5-4-2---------------------|
  --0-0-0-0-------------------------------0-0-0-0---------------------|

 ---------------------------------------------------------------12-12-12--|
 --11h12-12-11h12-12-11h12-12-11h12-12--11h12-12-11h12--------------------|
 ------------------------------------------------------12-9---------------|
 -----------------------------------------------------------12-9----------|
 -------------------------------------------------------------------------|
 -------------------------------------------------------------------------|

 ---------------------------------------------------------------------12-|
 --15-12--------------------12-12-12-12-12-12-12-12-12-12-12-12-15-12----|
 --------15-14-12----12--15----------------------------------------------|
 -----------------14-----------------------------------------------------|
 ------------------------------------------------------------------------|
 ------------------------------------------------------------------------|

 ------------------------------------------------]
 --15-12-----------------------------------------]
 --------14-12-----------------------------------]
 --------------14-12-12-12-14-14-13-12-12-12-12--]
 ------------------------------------------------]
 ------------------------------------------------]

 OTHER SOLO AND FADE
            
Hard to play? Try these video lessons and learn fast. | Correct




comments powered by Disqus
↑ Back to top | Tablatures and chords are parodies/interpretations of the original songs. You may use it for private study, scholarship, research or language learning purposes only