» » »

Joe Walsh, Rocky Mountain Way Tabs (ver.2)

Artists:  A B C D E F G H I J K L M N O P Q R S T U V W X Y Z # 

Rocky Mountain Way Tabs (ver.2)

Joe Walsh Tabs
 Rating:
3.7/5 (6 votes)
Rocky Mountain Way lessons Tabs too difficult? Try these video lessons and learn fast
                -------------------------------------------------------------------------------
                             Rocky Mountain Way - Joe Walsh
-------------------------------------------------------------------------------

Tuning: Standard E A D G B e

This is Really Close!

e|---------------------------------------------------------------------------|
B|o----9-9----10-9----------------------------------------------------------o|
G|-----9-9----9--9-----------------------------------------------------------|
D|-----9-9----11-9-----------------------------------------------------------|
A|o-------------------------------------------------------------------------o|
E|-0-------0-------------------------------------------------------------------|
                                          x4

Bar the 5th Fret on  A D G B and e and Bar the 7th Fret on D G and B
e|--5x-5x-5x-5x/-------------------------------------------------------------|
B|o-7x-7x-7x-7x/------------------------------------------------------------o|
G|--7x-7x-7x-7x/-------------------------------------------------------------|
D|--7x-7x-7x-7x/-------------------------------------------------------------|
A|o-5x-5x-5x-5x/0x-0x-0x-0x-------------------------------------------------o|
E|---------------------------------------------------------------------------|
                                          x4
                 x7
e|---------------------------------------------------------------------------|
B|---------------------------------------------------------------------------|
G|----------|o-1-o|----------------------------------------------------------|
D|----------|o-2-o|----------------------------------------------------------|
A|----------|o-2-o|----------------------------------------------------------|
E|-0-5-3-0=====--------------------------------------------------------------|
                                             repeat 4 times

                x?       x?       x?       x?
e|-----------------------------|o-5-o|--|o-7-o|------------------------------|
B|-----------------------------|o-5-o|--|o-7-o|------------------------------|
G|--------------------|o-1-o|--|o-6-o|--|o-8-o|------------------------------|
D|--------------------|o-2-o|--|o-7-o|--|o-9-o|------------------------------|
A|-0-4-5-6-7-|o-7-o|--|o-2-o|--|o-7-o|--|o-9-o|------------------------------|
E|-0-2-3-4-5-|o-5-o|-----------|o-5-o|--|o-7-o|------------------------------|


Bar the 5th Fret on  A D G B and e and Bar the 7th Fret on D G and B
e|--5x-5x-5x-5x/-------------------------------------------------------------|
B|o-7x-7x-7x-7x/------------------------------------------------------------o|
G|--7x-7x-7x-7x/-------------------------------------------------------------|
D|--7x-7x-7x-7x/-------------------------------------------------------------|
A|o-5x-5x-5x-5x/0x-0x-0x-0x-------------------------------------------------o|
E|---------------------------------------------------------------------------|
                                          x4

                 x7
e|---------------------------------------------------------------------------|
B|---------------------------------------------------------------------------|
G|----------|o-1-o|----------------------------------------------------------|
D|----------|o-2-o|----------------------------------------------------------|
A|----------|o-2-o|----------------------------------------------------------|
E|-0-5-3-0=====--------------------------------------------------------------|

                x?       x?       x?       x?
e|-----------------------------|o-5-o|--|o-7-o|------------------------------|
B|-----------------------------|o-5-o|--|o-7-o|------------------------------|
G|--------------------|o-1-o|--|o-6-o|--|o-8-o|------------------------------|
D|--------------------|o-2-o|--|o-7-o|--|o-9-o|------------------------------|
A|-0-4-5-6-7-|o-7-o|--|o-2-o|--|o-7-o|--|o-9-o|------------------------------|
E|-0-2-3-4-5-|o-5-o|-----------|o-5-o|--|o-7-o|------------------------------|

Bar the 5th Fret on  A D G B and e and Bar the 7th Fret on D G and B
e|--5x-5x-5x-5x/-------------------------------------------------------------|
B|o-7x-7x-7x-7x/-------------------------------------------------------------|
G|--7x-7x-7x-7x/-------------------------------------------------------------|
D|--7x-7x-7x-7x/-------------------------------------------------------------|
A|o-5x-5x-5x-5x/0x-0x-0x-0x--------------------------------------------------|
E|---------------------------------------------------------------------------|

e|---------------------------------------------------------------------------|
B|---------------------------------------------------------------------------|
G|---------------------------------------------------------------------------|
D|---------------------------------------------------------------------------|
A|---------------------------------------------------------------------------|
E|-0-5-3-0-------------------------------------------------------------------|

Solo Stuff

Then:

Bar the 5th Fret on  A D G B and e and Bar the 7th Fret on D G and B
e|--5x-5x-5x-5x/-------------------------------------------------------------|
B|o-7x-7x-7x-7x/-------------------------------------------------------------|
G|--7x-7x-7x-7x/-------------------------------------------------------------|
D|--7x-7x-7x-7x/-------------------------------------------------------------|
A|o-5x-5x-5x-5x/0x-0x-0x-0x--------------------------------------------------|
E|---------------------------------------------------------------------------|
                                 Repeat Until Song Ends

Have Fun!

| /  slide up
| \  slide down
| h  hammer-on
| p  pull-off
| ~  vibrato
| +  harmonic
| x  mute note
| =  let ring
| pm palm mute
===============================================================================
            
Submit corrections

comments powered by Disqus
↑ Back to top | Joe Walsh Tabs for Rocky Mountain Way. Lyrics for acoustic guitar and electric guitar. Tablatures and chords are parodies/interpretations of the original songs. You may use it for private study, scholarship, research or language learning purposes only