» » »

Rocky Mountain Way Bass tabs (ver.2)

Artists:  A B C D E F G H I J K L M N O P Q R S T U V W X Y Z # 

Rocky Mountain Way Bass tabs (ver.2)

Joe Walsh
Rating:
5/5 (1 vote)

Hard to play? Try these video lessons and learn fast.
                -------------------------------------------------------------------------------
			     Rocky Mountain Way - Joe Walsh
-------------------------------------------------------------------------------


Tuning: Standard

Intro
G|-------------------------------|
D|-------------------------------|
A|--5-5--5-5--5-5--7-7--7-7--7-7-|
E|-------------------------------|

Verse
G|-------------------------------|
D|-------------------------------|
A|-------------------------------|
E|-0-0--0-0--0-0--0-0----5----3--|


Chorus
G|----------------------------------------------------------------------------|
D|----------------------------------------------------------------------------|
A|----------------------------------------------------------------------------|
E|--5-5--5-5--5-5--5-5--0-0--0-0--0-0--0-0--5-5--5-5--5-5--5-5----------------|

G|----------------------------------------------------------------------------|
D|----------------------------------------------------------------------------|
A|----------------------2-2-2-2---2-2-2-2----2-2-3-3-4-4-5-5------------------|
E|-0-0--0-0--0-0--0-0---------------------------------------------------------|

SOLO

G|---------------------|
D|---------------------|
A|---------------------|
E|-0-0--0-0--0-0--0-0--|

Then play the chorus


| /  slide up
| \  slide down
| h  hammer-on
| p  pull-off
| ~  vibrato
| +  harmonic
| x  Mute note
===============================================================================
            
Hard to play? Try these video lessons and learn fast. | Correct




comments powered by Disqus
↑ Back to top | Tablatures and chords are parodies/interpretations of the original songs. You may use it for private study, scholarship, research or language learning purposes only