» » »

Life's Been Good Tabs (ver.2)

Artists:  A B C D E F G H I J K L M N O P Q R S T U V W X Y Z # 

Life's Been Good Tabs (ver.2)

Joe Walsh
Rating:
4/5 (20 votes)

Tabs too difficult? Try these video lessons and learn fast.
                Here we have the long solo version of Joe Walsh's brilliant 'Life's Been Good'.

As ever, any comments good or bad are most welcome.

p    - Pull-off
b    - Bend note 
r    - Return from bend
s    - Slide
(18) - Start with a bend sounding this note


e|----------14------------|-------14----------|
B|-------17---------------|----------17-------|
G|-16b18-------(18)r16-14-|-16b18-------16b18-|
D|------------------------|-------------------|
A|------------------------|-------------------|
E|----------------------- |-------------------|


e|----------------------------14------------|-------12----------|
B|----14----14-------------17---------------|----------15----12-|
G|-16----16----16-14-16b18-------(18)r16-14-|-14b16-------14----|
D|------------------------------------------|-------------------|
A|------------------------------------------|-------------------|
E|------------------------------------------|-------------------|


e|-------14-------------|-17----14------------|
B|----------17-------14-|----17---------------|
G|-16b18-------16b18----|----------(18)r16-14-|
D|----------------------|---------------------|
A|----------------------|---------------------|
E|----------------------|---------------------|


e|-------------------------------|----------14-------------|
B|----14----14----14-------------|-------17----------------|
G|-16----16----16----16b18r16-14-|-16b18-------16b18r16-14-|
D|-------------------------------|-------------------------|
A|-------------------------------|-------------------------|
E|-------------------------------|-------------------------|


e|-------14-------------|-17-14---------------------14------------|
B|----------17-------14-|-------17---------------17---------------|
G|-16b18-------16b18----|----------16-(18)r16b18-------(18)r16-14-|
D|----------------------|-----------------------------------------|
A|----------------------|-----------------------------------------|
E|----------------------|-----------------------------------------|


e|-------------12-------|-------------------------------|
B|----------15----------|----12----12-------------------|
G|-14-14b16-------14b16-|-14----14----14b16r14-12-12s14-|
D|----------------------|-------------------------------|
A|----------------------|-------------------------------|
E|----------------------|-------------------------------|


e|-21-20-21-20-19-17-|-21p17----------------------|
B|-------------------|-------17-15-14-------------|
G|-------------------|----------------------14-14-|
D|-------------------|----------------14s16-------|
A|-------------------|----------------------------|
E|-------------------|----------------------------|
            
Tabs too difficult? Try these video lessons and learn fast.




comments powered by Disqus
↑ Back to top | Tablatures and chords are parodies/interpretations of the original songs. You may use it for private study, scholarship, research or language learning purposes only