» » »

In The City Bass tabs (ver.1)

Artists:  A B C D E F G H I J K L M N O P Q R S T U V W X Y Z # 

In The City Bass tabs (ver.1)

Joe Walsh
Rating:
0/5 (0 votes)

Tabs too difficult? Try these video lessons and learn fast.
                
IN THE CITY (Bassline)
As recorded by Joe Walsh
(From the Album THE EAGLES- HELL FREEZES OVER)

	

Words and Music by Walsh, Joe

Gtr I (D A D G) - 'Bass'

  Q=82
 4/4
  Gtr I
  W          H    Q  S E.   H    +Q   +S  E.   H    +Q   +S  E.
|----------|--------------|------------------|-------------------|
|----------|--------------|------------------|-------------------|
|----------|-----------0--|---------------0--|---------------0---|
|----------|--------------|-0----(0)--(0)----|-2----(2)--(2)-----|


  H    +Q   +S  E.   H    +Q   +S  E.   H.      Q    H    +Q   +S  E.
|------------------|------------------|------------|------------------|
|------------------|------------------|------------|------------------|
|---------------0--|---------------0--|---------0--|---------------0--|
|-0----(0)--(0)----|-2----(2)--(2)----|-0----------|-2----(2)--(2)----|


  H.      Q    H    +Q   +S  E.   H    +Q   +S  E.   W
|------------|------------------|------------------|------|
|------------|------------------|------------------|------|
|---------0--|---------------0--|---------------0--|------|
|-0----------|-2----(2)--(2)----|-0----(0)--(0)----|-2----|


  Q.   E  H      H    +Q   +S  E.   H.      Q    H    +Q   +S  E.
|-7----7-13----|------------------|------------|------------------|
|--------------|------------------|------------|------------------|
|--------------|-0----(0)--(0)----|---------0--|---------------0--|
|--------------|---------------2--|-0----------|-2----(2)--(2)----|


  H.      Q    H    +Q   +S  E.   H.      Q    W
|------------|------------------|------------|------|
|------------|------------------|------------|------|
|---------0--|---------------0--|---------0--|------|
|-0----------|-2----(2)--(2)----|-0----------|-2----|


  Q.   E  H      S S S S E S S S S S S E E   S S S S E S S S S S S E E
|-7----7-13----|---------------------------|----------------------------|
|--------------|---------------------------|----------------------------|
|--------------|-0-0-0-0-0---0---0---0-0---|-0-0-0-0-0---0---0---0-0----|
|--------------|---------------------------|----------------------------|


  S S S S E S S S S S S E E   S S S S E S S S S S S E E
|---------------------------|----------------------------|
|---------------------------|----------------------------|
|-0-0-0-0-0---0---0---0-0---|-0-0-0-0-0---0---0---0-0----|
|---------------------------|----------------------------|


  S S S S E S S S S S S E E   S S S S E S S S S S S E E
|---------------------------|----------------------------|
|---------------------------|----------------------------|
|-0-0-0-0-0---0---0---0-0---|-0-0-0-0-0---0---0---0-0----|
|---------------------------|----------------------------|


  S S S S E S S S S S S E E   S S S S E S S S S S S E E   H    +Q   +S  E.
|---------------------------|---------------------------|-------------------|
|---------------------------|---------------------------|-------------------|
|-0-0-0-0-0---0---0---0-0---|-0-0-0-0-0---0---0---0-0---|-0----(0)--(0)-----|
|---------------------------|-------------------------2-|---------------5---|


  H    +Q   +S  E.   H    +Q   +S  E.   H    +Q   +S  E.   H    +Q   +S  E.
|------------------|------------------|------------------|------------------|
|------------------|------------------|------------------|------------------|
|------------------|---------------0--|---------------0--|---------------0--|
|-0----(0)--(0)-7--|-2----(2)--(2)----|-0----(0)--(0)----|-2----(2)--(2)----|


  H    +Q   +S  E.   H    +Q   +S  E.   H.      Q    H    +Q   +S  E.
|------------------|------------------|------------|------------------|
|------------------|------------------|------------|------------------|
|---------------0--|---------------0--|---------0--|---------------0--|
|-0----(0)--(0)----|-2----(2)--(2)----|-0----------|-2----(2)--(2)----|


  H.      Q    H    +Q   +S  E.   H.      Q    W
|------------|------------------|------------|------|
|------------|------------------|------------|------|
|---------0--|---------------0--|---------0--|------|
|-0----------|-2----(2)--(2)----|-0----------|-2----|


  Q.   E  H      H.      S E.   H.      Q    H    +Q   +S  E.
|-7----7-13----|--------------|------------|------------------|
|--------------|--------------|------------|------------------|
|--------------|-0------------|---------0--|---------------0--|
|--------------|-----------2--|-0----------|-2----(2)--(2)----|


  H.      Q    H    +Q   +S  E.   H.      Q    W
|------------|------------------|------------|------|
|------------|------------------|------------|------|
|---------0--|---------------0--|---------0--|------|
|-0----------|-2----(2)--(2)----|-0----------|-2----|


  Q.   E  H      S S S S E S S S S S S E E   S S S S E S S S S S S E E
|-7----7-13----|---------------------------|----------------------------|
|--------------|---------------------------|----------------------------|
|--------------|-0-0-0-0-0---0---0---0-0---|-0-0-0-0-0---0---0---0-0----|
|--------------|---------------------------|----------------------------|


  S S S S E S S S S S S E E   S S S S E S S S S S S E E
|---------------------------|----------------------------|
|---------------------------|----------------------------|
|-0-0-0-0-0---0---0---0-0---|-0-0-0-0-0---0---0---0-0----|
|---------------------------|----------------------------|


  S S S S E S S S S S S E E   S S S S E S S S S S S E E
|---------------------------|----------------------------|
|---------------------------|----------------------------|
|-0-0-0-0-0---0---0---0-0---|-0-0-0-0-0---0---0---0-0----|
|---------------------------|----------------------------|


  S S S S E S S S S S S E E   S S S S E S S S S S S E E
|---------------------------|----------------------------|
|---------------------------|----------------------------|
|-0-0-0-0-0---0---0---0-0---|-0-0-0-0-0---0---0---0-0-0--|
|---------------------------|----------------------------|


  S S S S E S S S S S S E E   S S S S E S S S S S S E E
|---------------------------|----------------------------|
|---------------------------|----------------------------|
|-0-0-0-0-0---0---0---0-0---|-0-0-0-0-0---0---0---0-0----|
|---------------------------|----------------------------|


  S S S S E S S S S S S E E   S S S S E S S S S S S E E
|---------------------------|----------------------------|
|---------------------------|----------------------------|
|-0-0-0-0-0---0---0---0-0---|-0-0-0-0-0---0---0---0-0----|
|---------------------------|----------------------------|


  S S S S E S S S S S S E E   S S S S E S S S S S S E E
|---------------------------|----------------------------|
|---------------------------|----------------------------|
|-0-0-0-0-0---0---0---0-0---|-0-0-0-0-0---0---0---0-0----|
|---------------------------|----------------------------|


  S S S S E S S S S S S E E   S S S S E S S S S S S E E
|---------------------------|----------------------------|
|---------------------------|----------------------------|
|-0-0-0-0-0---0---0---0-0---|-0-0-0-0-0---0---0---0-0-0--|
|---------------------------|----------------------------|


  S S S S E S S S S S S E E   S S S S E S S S S S S E E
|---------------------------|----------------------------|
|---------------------------|----------------------------|
|-0-0-0-0-0---0---0---0-0---|-0-0-0-0-0---0---0---0-0----|
|---------------------------|----------------------------|


  S S S S E S S S S S S E E   S S S S E S S S S S S E E
|---------------------------|----------------------------|
|---------------------------|----------------------------|
|-0-0-0-0-0---0---0---0-0---|-0-0-0-0-0---0---0---0-0----|
|---------------------------|----------------------------|


  S S S S E S S S S S S E E   S S S S E S S S S S S E E
|---------------------------|----------------------------|
|---------------------------|----------------------------|
|-0-0-0-0-0---0---0---0-0---|-0-0-0-0-0---0---0---0-0----|
|---------------------------|----------------------------|


  S S S S E S S S S S S E E   S S S S E S S S S S S E E   H    +Q   +S  E.
|---------------------------|---------------------------|-------------------|
|---------------------------|---------------------------|-------------------|
|-0-0-0-0-0---0---0---0-0---|-0-0-0-0-0---0---0---0-0-0-|-0----(0)--(0)-----|
|---------------------------|---------------------------|---------------5---|


  H    +Q   +S  E.   Q.   E E E E E   +Q   E. S +Q   +S  E.   Q  Q  +H
|------------------|----------------|-----------------------|--------------*|
|------------------|----------------|---------4-(4)--(4)----|-0--2--(2)----*|
|------------------|------------7-5-|-(5)--2-------------2--|--------------*|
|-0----(0)--(0)-7--|-2----2-6-9-----|-----------------------|--------------*|



Duration Legend
---------------
W - whole; H - half; Q - quarter; E - 8th; S - 16th; T - 32nd; X - 64th; a - acciaccatura
+ - note tied to previous; . - note dotted; .. - note double dotted
Uncapitalized letters represent notes that are staccato (1/2 duration)
Irregular groupings are notated above the duration line
Duration letters will always appear directly above the note/fret number it represents the
duration for.  Duration letters with no fret number below them represent rests.  Multi-
bar rests are notated in the form Wxn, where n is the number of bars to rest for.  Low
melody durations appear below the staff

Tablature Legend
----------------
 h   - hammer-on
 p   - pull-off
 b   - bend
 pb  - pre-bend
 r   - bend release (if no number after the r, then release immediately)
 /\  - slide into or out of (from/to "nowhere")
 s   - legato slide
 S   - shift slide
 - natural harmonic
[n]  - artificial harmonic
n(n) - tapped harmonic
 ~   - vibrato
 tr  - trill
 T   - tap
 TP  - trem. picking
 PM  - palm muting
\n/  - tremolo bar dip; n = amount to dip
 \n  - tremolo bar down
 n/  - tremolo bar up
/n\  - tremolo bar inverted dip
 =   - hold bend; also acts as connecting device for hammers/pulls
 <> - volume swell (louder/softer)
 x   - on rhythm slash represents muted slash
 o   - on rhythm slash represents single note slash

Misc Legend
-----------
 |  - bar
||  - double bar
||o - repeat start
o|| - repeat end
*|  - double bar (ending)
 :  - bar (freetime)
 $  - Segno
 &  - Coda
Tempo markers -  = BPM(8/16=s8/s16), where s8 = swing 8ths, s16 = swing 16ths
            
Tabs too difficult? Try these video lessons and learn fast.




comments powered by Disqus
↑ Back to top | Tablatures and chords are parodies/interpretations of the original songs. You may use it for private study, scholarship, research or language learning purposes only