» » »

Joe Walsh, Funk #49 Tabs (ver.4)

Artists:  A B C D E F G H I J K L M N O P Q R S T U V W X Y Z # 

Funk #49 Tabs (ver.4)

Joe Walsh Tabs
 Rating:
4/5 (4 votes)
Funk #49 lessons Tabs too difficult? Try these video lessons and learn fast
                "(3)
Song Tabed by ZakkLesPaul99.

B= Bend
V= Vibrato
X= Blank string
~= Let ring

|---------------------------------------|
|-------8---------------------5v---7-5--|
|--7b-x---7v-5~~-9-8-7-5-5v---5v---7-5--|
|-----------------------------5v-x-7-5--|
|---------------------------------------|
|---------------------------------------|

|----------|----------------------------|
|--7v--5-7-|-5---7--5----7v---7--5------|
|--7v--5-7-|-5---7--5----7v---7--5------|
|xx7v-x5-7-|-5--x7--5--xx7v--x7--5------|MAIN RIFF
|----------|----------------------------|
|----------|----------------------------|
Repeat a bunch of times then this.
|---------------------------------------|
|---------------------------------------|
|---------------------------------------|REPEAT TWICE
|-7-5----------------7-5----------------|
|-----7-5-3-------7------7-5-3----------|
|------------3-5--5------------3-5v-----|

|---------------------------------------|
|---------------------------------------|
|---------------------------------------|
|-9-7---------------9-7-----------------|REPEAT TWICE
|-----9-7-5------9------9-7-5-----------|
|-----------5-7--7------------5-7v------|
Then back to the main riff do it a bunch of times and heres the little solo.

|---------------------------------------|
|------------15-------------------------|
|------5v------15b-15b--13--------------|
|--7xx---5-----------------7-7----------|
|--7xx---------------------5-5----------|
|--5xx----------------------------------|

|---------------------------------------|
|---7-5-----7v---7-5--------------------|
|---7-5-----7v---7-5--------------------|
|--x7-5---xx7v--x7-5--------------------|
|---------------------------------------|
|---------------------------------------|
Then back to main riff.
Thats all I got so far so injoy just bring your gain up a little on ur
amp and it sounds just like the song.
"            
Submit corrections

comments powered by Disqus
↑ Back to top | Joe Walsh Tabs for Funk #49. Lyrics for acoustic guitar and electric guitar. Tablatures and chords are parodies/interpretations of the original songs. You may use it for private study, scholarship, research or language learning purposes only