>
 >
Analog Man

Analog Man Guitar Tabs

Joe Walsh - Analog Man chords, tabs, tablatures, lyrics

Guitar lessons | Add/correct | Request | Top 50 tabs Artists:  A B C D E F G H I J K L M N O P Q R S T U V W X Y Z 0-9

Analog Man Guitar Tabs – Joe Walsh

CD, Sheet music, Poster

Do you like Analog Man? Share with your friends now
Tabs
-------------------------------------------------------------------------------
-------------------------------------------------------------------------------





Tuning: EADGBE



two dist. electric guitars play this first line together

e|---------------------------------------------------------------------------|
B|---------------------------------------------------------------------------|
G|---------------------------------------------------------------------------|
D|---------------------------------------------------------------------------|
A|----------------------3~~--------------------------------------------------|
E|----0----3----5~~~~~~------5~~~--------------------------------------------|
                                        All these are wide vibratos/brbs



                        riff 1
e|-------------------------|
B|-------------------------|
G|-------------------------|
D|-------------------------|
A|----------------3~~~~~---|
E|-0---3----5~~~~---5~~~~--|
        the rhythm guitar plays this riff a couple times in between the lead thing
and for the chorus


e|---------------------------------------------------------------------------|
B|---------------------------------------------------------------------------|
G|--------7b9---h15~~~~~-------------5b7----h13~~~---------------------------|
D|---------------------------------------------------------------------------|
A|---------------------------------------------------------------------------|
E|---------------------------------------------------------------------------|
                strike seven, bend nine and while bent, hammer fifteen with the pick hand.
                Use both hands for the vibratos



Verse

/////// strum w/ palm muting

one guitar plays barre chords the other plays open chords.


A
Welcome to cyberspace I'm lost in the fog
C
everythings digital I'm still analog
G7
something goes wrong I don't have a clue
      A
some 10-year-old smarty has to show me what to do


Whenever the keyboard kicks in, the guitars play riff one in the background




************************************

| /   slide up
| \   slide down
| h   hammer-on
| p   pull-off
| ~   vibrato
| +   harmonic
| x   Mute note
| b   Bend
| pb  Pre-bend
| br  Bend release
| pbr Pre-bend release
| brb Bend release bend

************************************





Comments


Popular Joe Walsh tabs & chords
Rocky Mountain Way 1 Bass Tabs
Rocky Mountain Way Chords
Funk #49 1 Tabs
Funk #49 2 Tabs
In The City Tabs
Lifes Been Good Tabs
Turn To Stone Tabs
Help Me Thru The Night Ukulele
In The City Ukulele
Ordinary Average Guy Ukulele


Song lyrics



↑ Back to top | Tablatures and chords are parodies/interpretations of the original songs. You may use it for private study, scholarship, research or language learning purposes only
© 2014 AZChords.com Contact us | Privacy policy | DMCA | Add/correct tabs | Request tabs | Top 50 tabs