» » »

Joel Plaskett, Written All Over Me Tabs (ver.1)

Artists:  A B C D E F G H I J K L M N O P Q R S T U V W X Y Z # 

Written All Over Me Tabs (ver.1)

Joel Plaskett Tabs
 Rating:
4/5 (5 votes)
Written All Over Me lessons Tabs too difficult? Try these video lessons and learn fast
                Intro:                                                              Play 1 time
e|---------------------------------------|--------------------------|-------------------|
B|-----------------------1--1------------|-------------5-3----------|-------------------|
G|----------3-----------2--0--0--12------|------3--------3---3---x2-|-------------------|
D|--------5-3---5--0h2h3--2--3-3s10---x6-|---55-3-5-5------5-3-5----|-5-3-------5-------|
A|----1s3-5---5-5------------------------|---55-----5------5--------|-----5-4-3---------|
E|-1h3-----------------------------------|---33-----3------3--------|-------------------|


e|-----------------------------------------------------------------------------------|
B|------7----8----10----12-----------------------------------------------------------|
G|------7----8----10----12-----------------------------------------------------------|
D|------7----8----10----12-----------------------------------------------------------|
A|------5----6----8-----10-----------------------------------------------------------|
E|-----------------------------------------------------------------------------------|

Verse:
                                                        C

Tip tap toe go the footsteps as they're coming down the hall
                                      G       G-F F-C
I'm shirtless with my ear against the wall
                                                         C
Click Clac CliCk go the cameras and my face in black and white
                                  G      G#
But I'll be black and blue before tonight

Prechorus:
Bb
Someone's trying to hurt me, I don't know who
B   C                       C#
The Waters gettin dirty, my hands are too
D                 D               Eb     F
Someone's pickin' leaves from the family tree

Chorus:
    G           Eb       C      Eb
I've got trouble written all over me
    G           Eb       C      Eb
I've got trouble written all over me
G           Eb    C          Eb
I've got trouble written all over me

Interlude:
e|-------------|-------------------|
B|-------------|--------2--1-------|
G|-------------|-------2--0--3-----|
D|--------5--x3|--0h2h3--2-------12|
A|----1s3-5----|------------3--3s10|
E|-1h3---------|-------------------|

2nd Part: PLay the entier first part over. Most is a guitar solo except

Tic Tac Toe go the checkmates Oh


I didnt tab the guitar solo but during the Bb-C-C# progression he plays:


e|----------------------|-----------------------------------------------------------|
B|--------------15------|-----------------------------------------------------------|
G|------15--17----------|-----------------------------------------------------------|
D|--/17--------------x8-|-----------------------------------------------------------|
A|----------------------|-----------------------------------------------------------|
E|----------------------|-----------------------------------------------------------|


D           Eb                 F-G END
            
Submit corrections

comments powered by Disqus
↑ Back to top | Joel Plaskett Tabs for Written All Over Me. Lyrics for acoustic guitar and electric guitar. Tablatures and chords are parodies/interpretations of the original songs. You may use it for private study, scholarship, research or language learning purposes only