» » »

Joel Plaskett, Soundtrack For The Night Tabs (ver.1)

Artists:  A B C D E F G H I J K L M N O P Q R S T U V W X Y Z # 

Soundtrack For The Night Tabs (ver.1)

Joel Plaskett Tabs
Rating:
5/5 (2 votes)
Soundtrack For The Night lessons Tabs too difficult? Try these video lessons and learn fast
                Joel Plaskett Emergency
"Soundtrack for the night"


Tuning: Open G tuning
Capo: 5th fret

-Start by tuning your sixth string down a tone to D. Check the tuning with the fourth
string.

-Then tune your fifth string down a tone to G. Check the tuning with the third (G) string.

-Lastly, tune your first string down a tone to D. Check the tuning with the fourth (D) string.

-Put capo on 5th fret.


Don't ask me how I figured out this song was in open G tuning, but it just kind of came
me. I figured out how to play the intro in standard tuning, but it just didn't sound
and once you get to the pre-chorus and chorus it needs to be in open G with a capo on 
fret. I watched some videos of this song being played live to make sure I was on the
path.

This tab is always up for interpretation, I believe most of it is correct, but if you


Intro

"Yeah I loved our band...." (Chords, listen to song for rhythm)

--0---0---0---0---0---0---0---0-----|
--0---3---3---1---0---3---3---1-----|
--0---0---0---0---0---0---0---0-----|
--0---3---2---2---0---0---2---2-----|
--0---0---0---0---0---0---0---0-----|
--0---0---0-------0---0---0---0-----|


Pre-Chorus

"And through the summer...."

*This part is played picking each chord up and down, or you can strum it, I think there
a mandolin that plays it too.

-------------------|
--3---3---3---3----|
--0---0---0---0----|
--5---4---2---4----|
--0---0---0---0----|
-------------------|


Chorus

"Anybody, anybody else would be gone long gone"

*Again this part is played with a manolin picking. This is just the guitar part but if
playing it by yourself you can easily here the mandolin part and figure it out.

--0-0-0---0-0-0-0-------------------------------------------------------------|
--3-5-3---3-5-3-0--0---------3------------------------------------------------|
--0-0-0---0-0-0-0-2--2-0---0-0--*mandolin does this at the end ---2-/-4-2-0---|
--0-0-0---0-0-0-0--------2-2-2-----------------------------------0------------|
--0-0-0---0-0-0-0-------------------------------------------------------------|
------------------------------------------------------------------------------|

Outro is same as the Intro -end on G (open on all strings)

colinwfinlay #@# rogers.com
            

comments powered by Disqus
↑ Back to top | Joel Plaskett Tabs for Soundtrack For The Night. Lyrics for acoustic guitar and electric guitar. Tablatures and chords are parodies/interpretations of the original songs. You may use it for private study, scholarship, research or language learning purposes only