>
 >
Nowhere With You

Nowhere With You Bass Tabs

Joel Plaskett - Nowhere With You chords, tabs, tablatures, lyrics

Guitar lessons | Add/correct | Request | Top 50 tabs Artists:  A B C D E F G H I J K L M N O P Q R S T U V W X Y Z 0-9

Nowhere With You Bass Tabs – Joel Plaskett

CD, Sheet music, Poster

Do you like Nowhere With You? Share with your friends now
Bass TabsChordsChords v2Ukulele
-------------------------------------------------------------------------------
-------------------------------------------------------------------------------


Tuning : Standard (EADG)

This song is played entirely on the E string. Very simple but fun to play along 
with. Definitely recommended for beginners.

I apologize if the timing isn't very clear - its easy to get just by listening to the song. :)


~ Intro ~

G|------------------|------------------|      |------------------|------------------|
D|------------------|------------------|      |------------------|------------------|
A|------------------|------------------|      |------------------|------------------|
E|--5---5---5---5---|--5---5/12-12-12\-| (x2) |--5---5---5---5---|--5---5/10-10-10\-|

G|------------------|------------------|
D|------------------|------------------|
A|------------------|------------------|
E|--5---5/-12-12\---|--5---5---5-------|


~ Verse ~ (x2)

G|------------------|------------------|      |------------------|------------------|
D|------------------|------------------|      |------------------|------------------|
A|------------------|------------------|      |------------------|------------------|
E|--5---5---5---5---|--5---5/12-12-12\-| (x2) |--5---5---5---5---|--5---5/10-10-10\-|

G|------------------|------------------|
D|------------------|------------------|
A|------------------|------------------|
E|--5---5/-12-12\---|--5---5---5---5---|


~ "Can I tag along tonight?" ~

G|------------------|      |------------------|
D|------------------|      |------------------|
A|------------------|      |------------------|
E|--10--10--10--10--| (x3) |--5---5/-12-12----|

G|------------------|      |------------------|------------------|
D|------------------|      |------------------|------------------|
A|------------------|      |------------------|------------------|
E|--10--10--10--10--| (x2) |--5---5---5---5/--|--12121212121212\-|


~ Verse ~ (x3)

G|------------------|------------------|      |------------------|------------------|
D|------------------|------------------|      |------------------|------------------|
A|------------------|------------------|      |------------------|------------------|
E|--5---5---5---5---|--5---5/12-12-12\-| (x2) |--5---5---5---5---|--5---5/10-10-10\-|

G|------------------|------------------|
D|------------------|------------------|
A|------------------|------------------|
E|--5---5/-12-12\---|--5---5---5---5---|


~ "Can I tag along tonight?" ~

G|------------------|      |------------------|
D|------------------|      |------------------|
A|------------------|      |------------------|
E|--10--10--10--10--| (x3) |--5---5/-12-12----|

G|------------------|      |------------------|
D|------------------|      |------------------|
A|------------------|      |------------------|
E|--10--10--10--10--| (x2) |--5---5---5---5/--|

G|------------------|
D|------------------|
A|------------------|
E|--12--12--12--12--| (x2)


~ Verse ~

G|------------------|------------------|      |------------------|------------------|
D|------------------|------------------|      |------------------|------------------|
A|------------------|------------------|      |------------------|------------------|
E|--5---5---5---5---|--5---5/12-12-12\-| (x2) |--5---5---5---5---|--5---5/10-10-10\-|

G|------------------|------------------|------------------|
D|------------------|------------------|------------------|
A|------------------|------------------|------------------|
E|--5---5/-12-12\---|--5---5---5---5---|-5----------------|


~ "Can I go nowhere with..." ~

G|------------------|
D|------------------|
A|------------------|
E|-12121212121212\--|


~ Verse (x2) ~

G|------------------|------------------|      |------------------|------------------|
D|------------------|------------------|      |------------------|------------------|
A|------------------|------------------|      |------------------|------------------|
E|--5---5---5---5---|--5---5/12-12-12\-| (x2) |--5---5---5---5---|--5---5/10-10-10\-|

G|------------------|------------------|
D|------------------|------------------|
A|------------------|------------------|
E|--5---5/-12-12\---|--5---5---5---5---|


~ Outro ~

G|------------------|------------------|      |------------------|------------------|
D|------------------|------------------|      |------------------|------------------|
A|------------------|------------------|      |------------------|------------------|
E|--5---5/-12-12\---|--5---5---5---5---| (x2) |--5---5/-12-12-10-|--12-12-10---5----|


| /  slide up
| \  slide down
| h  hammer-on
| p  pull-off
| ~  vibrato
| +  harmonic
| x  Mute note
===============================================================================





Comments


Popular Joel Plaskett tabs & chords
A Million Dollars Chords
Nina And Albert Chords
Rollin Rollin Rollin Chords
Soundtrack For The Night Chords
The Day You Walked Away Chords
Lazy Bones Tabs
She Made A Wreck Outta Me Tabs
Deny Deny Deny Ukulele
Drunk Teenagers Ukulele
News Of Your Son Ukulele


Song lyrics



↑ Back to top | Tablatures and chords are parodies/interpretations of the original songs. You may use it for private study, scholarship, research or language learning purposes only
© 2014 AZChords.com Contact us | Privacy policy | DMCA | Add/correct tabs | Request tabs | Top 50 tabs