» » »

Joel Plaskett, Light Of The Moon Tabs (ver.1)

Artists:  A B C D E F G H I J K L M N O P Q R S T U V W X Y Z # 

Light Of The Moon Tabs (ver.1)

Joel Plaskett Tabs
 Rating:
4.2/5 (5 votes)
Light Of The Moon lessons Tabs too difficult? Try these video lessons and learn fast
                Joel Plaskett - Light of the Moon

Sorry to Mr. Unregistered user who posted this already, but I noticed a large number of
errors. I mean, the other version sounds so-so for playing just with chords, but in this
I will try to stay accurate to the individual notes for playing accompaniment. Also, 
thrown in some tabalature that may or may not be useful.

I like to replace the B7 with B7add11(no5), which looks like |021200| but it's going to
B7 for simplicity.

Intro/verse
   G     B7    C     G     C     G     G     D
e|-------------3---0-------3---0---------------|
B|-----------0---3---0-------3---0-----3-1-0-3-|
G|-0---0---2-----------2-0---------2-0-0-----2-|
D|---0---1-------------------------------------|
A|-------------3-----------3-------------------|
E|-3-----------------3-----------3-------------|

G             B7
In late September
  C                G
I drove across the prairie
  C            G
The mountains behind me
  G              D
And the ocean beyond
     G             B7
This country's a coalmine
     C        G
And I'm a canary
     C         G
Turn out the headlights
        G       D
and the radio on

G              D
I remember the words
             Em
I forget the tune
                 D
The light of the moon
                 G
The light of the moon
G         D
Under the stars,
                Em
you stagger and swoon
                 D
The light of the moon
                 G
The light of the moon

G             B7
Sunrise oh sunrise
  C             G
Will you wait for me
  C             G
Don't come too soon
                          D
Through the night's deep abyss
G             B7
Flirt the waitress
   C            G
in Sault Ste Marie
C             G
Hear music and voices
                  D
through static and hiss

G              D
I remember the words
             Em
I forget the tune
                 D
The light of the moon
                 G
The light of the moon
G         D
Under the stars,
                Em
you stagger and swoon
                 D
The light of the moon
                 G
The light of the moon

Verse end
e|-7-5-3-5~-5-3-2-2h3~|
B|--------------------|
G|--------------------|
D|--------------------|
A|--------------------|
E|--------------------|

Outro
e|-8888-777-555-7-5-3-5-3-3-0-0--2-2-2-3-5-3-3-3-|
b|-8888-888-555-8-5-3-5-3-3-1-1--3-3-3-5-7-3-3-3-|
g|-----------------------------------------------|
d|-----------------------------------------------|
a|-----------------------------------------------|
E|-----------------------------------------------|
            
Submit corrections

comments powered by Disqus
↑ Back to top | Joel Plaskett Tabs for Light Of The Moon. Lyrics for acoustic guitar and electric guitar. Tablatures and chords are parodies/interpretations of the original songs. You may use it for private study, scholarship, research or language learning purposes only