>
 >
From The Inside Out

From The Inside Out Guitar Tabs

Joel Houston - From The Inside Out chords, tabs, tablatures, lyrics

Guitar lessons | Add/correct | Request | Top 50 tabs Artists:  A B C D E F G H I J K L M N O P Q R S T U V W X Y Z 0-9

From The Inside Out Guitar Tabs – Joel Houston

CD, Sheet music, Poster

Do you like From The Inside Out? Share with your friends now
ChordsTabsUkulele
-------------------------------------------------------------------------------
-------------------------------------------------------------------------------

Tuning: Standard (E,A,D,G,B,e)

This is how I play the song at my church.


Intro: 4x Chords: F C G
e|--------------------------------------------------|
B|----------------17----------17--------------------|
G|---------17-------------17------17--19--16--------|
D|--17h19-----19------17----------------------17----|
A|--------------------------------------------------|
E|--------------------------------------------------|

Verse 1:
              F                           C       G
A thousand times I've failed still Your mercy remains
               F                        C             G
And should I stumble again still I'm caught in Your grace
        Am                              C          G
Everlasting Your light will shine when all else fades
        Am                       C        G
Never-ending Your glory goes beyond all fame


Break: 2x Chords: F C G
e|--------------------------------------------------|
B|----------------17----------17--------------------|
G|---------17-------------17------17--19--16--------|
D|--17h19-----19------17----------------------17----|
A|--------------------------------------------------|
E|--------------------------------------------------|


Verse 2:
             F                   C     G
Your will above all else my purpose remains
             F                   C         G
The art of losing myself in bringing You praise
      Am           F                    C        G
Everlasting Your light will shine when all else fades
       Am          F            C        G
Never-ending Your glory goes beyond all fame


Pre-chorus:
F                    C                 Am
In my heart in my soul I give You control
                         G
Consume me from the inside out Lord
F                   Am                G
Let justice and praise become my embrace
                        Dm
To love you from the inside out


4 beat pause.

Break: 2x Chords: F C G
e|--------------------------------------------------|
B|----------------17----------17--------------------|
G|---------17-------------17------17--19--16--------|
D|--17h19-----19------17----------------------17----|
A|--------------------------------------------------|
E|--------------------------------------------------|


Verse 2:
             F                   C     G
Your will above all else my purpose remains
             F                   C         G
The art of losing myself in bringing You praise
      Am           F                    C        G
Everlasting Your light will shine when all else fades
       Am          F            C        G
Never-ending Your glory goes beyond all fame


Pre-chorus:
F                    C                 Am
In my heart in my soul I give You control
                         G
Consume me from the inside out Lord
F                   Am                G
Let justice and praise become my embrace
                        Dm
To love you from the inside out


Chorus:
      Am           F                    C          G
Everlasting Your light will shine when all else fades
        Am          F           C          G
Never ending Your glory goes beyond all praise
          C        F            G         Am
And the cry of my heart is to bring You praise
            F    G            F          G


Guitar Solo:
(Over the chords from the pre-chorus)
e|-------------------------------------------------12-12-12-12-12-12-12-12-13-13-13-13-12-12-12-12|
B|-13-13-13-13-13-13-13-13-13-13-13-13-13-13-13-13-13-13-13-13-13-13-13-13-13-13-13-13-13-13-13-13|
G|-14-14-14-14-14-14-14-14-12-12-12-12-12-12-12-12------------------------------------------------|
D|------------------------------------------------------------------------------------------------|
A|------------------------------------------------------------------------------------------------|
E|------------------------------------------------------------------------------------------------|

e|------------------------------------------------|
B|-13-12-10-12----13-12-10-10-12------------------|
G|-------------12----------------12---9-9-10-9-7--|
D|------------------------------------------------|
A|------------------------------------------------|
E|------------------------------------------------|

e|----------------12-12-12-12-12-12-12-12----------------12-12-12-12-12-12-12-12-|
B|-13-12-10-12-13-13-13-13-13-13-13-13-13-13-12-10-12-13-13-13-13-13-13-13-13-13-|
G|-------------------------------------------------------------------------------|
D|-------------------------------------------------------------------------------|
A|-------------------------------------------------------------------------------|
E|-------------------------------------------------------------------------------|

e|---17--17--17--17--17--17--17--17--19--19--19-|
B|-15--15--15--15--15--15--15--15--17--17--17---|
G|----------------------------------------------|
D|----------------------------------------------|
A|----------------------------------------------|
E|----------------------------------------------|

Pre-chorus:
F                    C                 Am
In my heart in my soul I give You control
                         G
Consume me from the inside out Lord
F                   Am                G
Let justice and praise become my embrace
                        Dm
To love you from the inside out


Chorus:
      Am           F                    C          G
Everlasting Your light will shine when all else fades
        Am          F           C          G
Never ending Your glory goes beyond all praise
          C        F            G         Am
And the cry of my heart is to bring You praise
            F    G            F          G

(repeat chorus)

This is the song as it is on the CD. The solo may not be 100% correct but it is very 

| /  slide up
| \  slide down
| h  hammer-on
| p  pull-off
| ~  vibrato
| +  harmonic
| x  Mute note
===============================================================================





Comments


Popular Joel Houston tabs & chords
Everyday Chords
Salvation Is Here Chords
The Stand Chords
The Stand 1 Chords
With Everything Chords
Everyday Ukulele
From The Inside Out Ukulele
Salvation Is Here Ukulele
Scream Ukulele
Yours Is The Kingdom Ukulele


Song lyrics



↑ Back to top | Tablatures and chords are parodies/interpretations of the original songs. You may use it for private study, scholarship, research or language learning purposes only
© 2014 AZChords.com Contact us | Privacy policy | DMCA | Add/correct tabs | Request tabs | Top 50 tabs