» » »

John Deere Green Tabs (ver.1)

Artists:  A B C D E F G H I J K L M N O P Q R S T U V W X Y Z # 

John Deere Green Tabs (ver.1)

Joe Diffie
Rating:
0/5 (0 votes)

Hard to play? Try these video lessons and learn fast.
                -------------------------------------------------------------------------------
			     SONG NAME - Band Name
-------------------------------------------------------------------------------
pretty simple, you can palm mute the G notes on the low E string if you like.

Tuning: standard
                                                        x2
e|---------------------------------------------------------------------------|
B|---------------------------------------------------------------------------|
G|-------------------------------------5b(6)r--3-----------------------------|
D|----------5-----3--5-----5-------5---5b(6)r--3-----------------------------|
A|----------5-----3--5-----5-------5-----------------------------------------|
E|----3--3-----3---------------3---------------------------------------------|

e|---------------------------------------------------------------------------|
B|---------------------------------------------------------------------------|
G|-------------------------5b(6)r-3------5b(6)r-3----------------------------|
D|----------5-----3--5-----5b(6)r-3------5b(6)r-3----------------------------|
A|----------5-----3--5-------------------------------------------------------|
E|----3--3-----3-------------------------------------------------------------|

| r  release bend
| b  bend 
| /  slide up
| \  slide down
| h  hammer-on
| p  pull-off
| ~  vibrato
| +  harmonic
| x  Mute note
===============================================================================
            
Hard to play? Try these video lessons and learn fast. | Correct




comments powered by Disqus
↑ Back to top | Tablatures and chords are parodies/interpretations of the original songs. You may use it for private study, scholarship, research or language learning purposes only