» » »

Joe Bonamassa, Woke Up Dreamin Tabs (ver.1)

Artists:  A B C D E F G H I J K L M N O P Q R S T U V W X Y Z # 

Woke Up Dreamin Tabs (ver.1)

Joe Bonamassa Tabs
 Rating:
4/5 (4 votes)
Woke Up Dreamin lessons Tabs too difficult? Try these video lessons and learn fast
1
                aka: Vaughanabe13

*note* the studio version seems to be tuned down to open D, but I will tab
it as if it were in standard tuning. You can tune down if you wish.
*note2* I realize the song goes very fast so I put time markers throughout the tab that 
show you where the song is at and how much has gone by.

Intro:
*note* There are many string hits and mutes to create a cool acoustic effect, in 
to the actual notes being played. Just play aggressively against the strings.

e---------------------------------------------------3p0--:|
b---------------------------------------------------3p0--:|
g--------------------------------------------------------:|
d-2p0---2-------2p0---2-------2p0---2-------2p0---0------:| x4
a--------------------------------------------------------:|
e-----0---0h3p0-----0---0h3p0-----0---0h3p0-----0--------:|
0:00                                                0:03


Intro Part 2 (before verse):

e-----------0--------------0-----------0-----------0--|
b-----------0--------------0-----------0-----------0--|
g-----------1-------------(1)----------1-----------0--|
d---0h2-0h2-------0h2-0h2------0h2-0h2-----0h2-0h2----|
a-----------------------------------------------------|
e-0-----------3-0------------0-----------0------------|
0:12

Verse:

e-----------------------------------------------0-------------------0---:|
b-----------------------------------------------0-------------------0---:|
g----------------------------------------------(1)-2p0-------------(1)--:|
d-2-x-2-x-2---2--2p0-----0h2-0---------0h2-0h2--------2p0--0h2-0h2------:|x2
a---x---x---------------------------------------------------------------:|
e-0-x-0-x-0---0------3-0-------3--3--0--------------------0-------------:|
0:18
 woke up dreamin'      I was   gonna die                             'cuz my

e--2-2-2-2-2-2-2-2---2-2-2-2-----------------------0-------------------0--|
b--0-0-0-0-0-0-0-0---0-0-0-0---2-2-----------------0-------------------0--|
g--2-2-2-2-2-2-2-2---2-2-2-2---2-2-----------------1-2p0---------------1--|
d--1-1-1-1-1-1-1-1---1-1-1-1---2-2---------0h2-0h2-------2p0---0h2-0h2----|
a--2-2-2-2-2-2-2-2---2-2-2-2---0-0----------------------------------------|
e--------------------------------3--3----0-------------------0------------|
0:31
   baby said her,    said her last  good-byes

Verse 2:
Reached out for her, and she was not there. Reached out for her, and she was not there. 
I miss her body, and her long brown hair.

Bridge:

e--------------------------------------------------------------------------|
b--------------------------------------------------------------------------|
g------------1-2p0---------------1-2p0---------------1-2p0--------------1--|
d---0h2-0h2--2----2p0---0h2-0h2--2----2p0---0h2-0h2--2----2p0---0h2-oh2-2--|
a--------------------------------------------------------------------------|
e-0----------0--------0----------0--------0----------0--------0---------0--|
0:57
  heart rate fallin,     river   flood.    black cat bawlin,  moon ... blood

e----3-3-3-3-3--------3-3---0---------------0------------------0-----|
b----2-2-2-2-2--------2-2---2---------------0------------------0-----|
g----2-2-2-2-2--------2-2---2---------------1-2p0-------------(1)----|
d----2-2-2-2-2--------2-2---2-------0h2-0h2------2p0---0h2-0h2-------|
a--0-0-0-0-0-0------0-0-0---0----------------------------------------|
e-------------------------------3--0-----------------0---------------|
1:03
    woke up dreamin,  I was gon-na die                          ...all my

e-2-2-2-2-2-2-2-2-2-2---------------------------0-------------------0------|
b-0-0-0-0-0-0-0-0-0-0-2--2----------------------0-------------------0------|
g-2-2-2-2-2-2-2-2-2-2-2--2----2----------------(1)-2p0--------------1------|
d-1-1-1-1-1-1-1-1-1-1-2--2----2---------0h2-0h2-------2p0---0h2-0h2--------|
a-2-2-2-2-2-2-2-2-2-2-0--0----0--------------------------------------------|
e-----------------------------3----3--0-------------------0----------0h3p0-|
1:09
  sins  abound me,    It's my turn to cry

Picking Solo:
e---------------------------------------------------3p0--:|
b---------------------------------------------------3p0--:|
g--------------------------------------------------------:|
d-2p0---2-------2p0---2-------2p0---2-------2p0---0------:| x4
a--------------------------------------------------------:|
e-----0---0h3p0-----0---0h3p0-----0---0h3p0-----0--------:|
1:15

e-----3b--3b--3b------------3b--3b--3b-------|
b-----2---2---2-------------2---2---2--------|
g-----2---2---2---2p0-------2---2---2---2----|
d-----2---2---2------2p0----2---2---2---2----|
a--0-(0)-(0)-(0)-0-------0-(0)-(0)-(0)--0----|
e-----------------------------------------3--|
1:27
                                            (alternate picking)
e------------0-------------------0------------2-2-0-00-----------0-(7)--|
b------------0-------------------0------------x-x-0-00-------2---0-(7)--|
g------------1-2p0--------------(1)-2p0-------2-2-2-22------2--2-0-(7)--|
d----0h2-0h2------2p0---0h2-0h2--------2p0----1-1-1-11-----2---2---(7)--|
a-------------------------------------------2---2-2-22--3/4----4--------|
e--0---------0--------0----------0--------------------------------------|
1:30

e------------0-------------------0--------|
b------------0-------------------0--------|
g-----------(1)-2p0--------------1--------|
d----0h2-0h2-------2p0---0h2-0h2----------|
a-----------------------------------------|
e--0-------------------0-----------0h3p0--|
1:36
e----------------------------------------------------------:|
b----------------------------------------------------------:|
g---------------------0---------------------------0--------:|
d-2p0---2-------2p0-----------2p0---2-------2p0------------:| x2
a----------------------------------------------------------:|
e-----0---0h3p0-----0---0h3p0-----0---0h3p0-----0---0h3p0--:|
1:39

e-----3b--3b--3b------------3b--3b--3b---------|
b-----2---2---2-------------2---2---2----------|
g-----2---2---2---2p0-------2---2---2--2p0-----|
d-----2---2---2------2p0----2---2---2-----2p0--|
a--0-(0)-(0)-(0)-0-------0-(0)-(0)-(0)---------|
e----------------------------------------------|
1:46
                                            (alternate picking)
e------------0-------------------0------------2-2-0-00-----------0-(7)--|
b------------0-------------------0------------x-x-0-00-------2---0-(7)--|
g------------1-2p0--------------(1)-2p0-------2-2-2-22------2--2-0-(7)--|
d----0h2-0h2------2p0---0h2-0h2--------2p0----1-1-1-11-----2---2---(7)--|
a-------------------------------------------2---2-2-22--3/4----4--------|
e--0---------0--------0----------0--------------------------------------|
1:49

e------------0-------------------0--------|
b------------0-------------------0--------|
g-----------(1)-2p0--------------1-2p0----|
d----0h2-0h2-------2p0---0h2-0h2------2p0-|
a-----------------------------------------|
e--0-------------------0------------------|
1:55

Verse 3: Devil's Risin, you don't have a chance. Devil's risin, you don't have a chance. 
there's fiddles playin, shake your bones and dance.

Verse 4: I just want to, live another day. I just want to, live another day. See that 
haired woman, comin' back this way.

e---------------------------------------------------3p0--:|
b---------------------------------------------------3p0--:|
g--------------------------------------------------------:|
d-2p0---2-------2p0---2-------2p0---2-------2p0---0------:| x3, then
a--------------------------------------------------------:|
e-----0---0h3p0-----0---0h3p0-----0---0h3p0-----0--------:|
2:37

e-----------------------------------------------------|
b-----------------------------------------------------|
g-----------------------------------------------------|
d-2p0---2-------2p0---2-------2p0---2-------2p0-------|
a----------------------------------------------2p0----|  end
e-----0---0h3p0-----0---0h3p0-----0---0h3p0--------3--|
2:45

rate it to show me how well I did.
            
Submit corrections

comments powered by Disqus
↑ Back to top | Joe Bonamassa Tabs for Woke Up Dreamin. Lyrics for acoustic guitar and electric guitar. 1 Tablatures and chords are parodies/interpretations of the original songs. You may use it for private study, scholarship, research or language learning purposes only