» » »

Story Of A Quarryman Tabs (ver.2)

Artists:  A B C D E F G H I J K L M N O P Q R S T U V W X Y Z # 

Story Of A Quarryman Tabs (ver.2)

Joe Bonamassa
Rating:
0/5 (0 votes)

Tabs too difficult? Try these video lessons and learn fast.
                			     SONG NAME - Band Name

Tuning:Standard

e|-------5-7-8-7-5--------------------(5)------5-7-8-7-10-8-7-5--------------|
B|-----5-----------5-5/6-5-3------(5)--------5-------------------------------|
G|-2-5------------------------(5)--------2-5--------------------2-2/3-2-0----|
D|---------------------------------------------------------------------------|
A|---------------------------------------------------------------------------|
E|---------------------------------------------------------------------------|

e|-------5-7-5-4--8-7-5---10-11-10-8h10p8-----------------8-10-13-11h13p11---|
B|-----5----------------8-----------------11-10-8-8-10-11------------------13|
G|-2-5-----------------------------------------------------------------------|
D|---------------------------------------------------------------------------|
A|---------------------------------------------------------------------------|
E|---------------------------------------------------------------------------|

e|---------------------15-17-18-------8-12-17-15-12----------------------------|
B|-8-10-15-16-15-13-15-----------8-10---------------15b-10-10h11p10-10---------|
G|-----------------------------------------------------------------------------|
D|-----------------------------------------------------------------------------|
A|-----------------------------------------------------------------------------|
E|-----------------------------------------------------------------------------|

e|---------------12-19-20-19-17-15------------------------------------15-18----|
B|-------------13------------------17-17-15-13------------------15-18----------|
G|-12/14-12-14---------------------------------14-12-14-14b-12~----------------|
D|-----------------------------------------------------------------------------|
A|-----------------------------------------------------------------------------|
E|-----------------------------------------------------------------------------|

e|-17-20-18-20b-20b-------15-21b-20-18-17-15h17-15h17-15-----------------------|
B|------------------15-18--------------------------------13-15-15/16-----------|
G|-----------------------------------------------------------------------------|
D|-----------------------------------------------------------------------------|
A|-----------------------------------------------------------------------------|
E|-----------------------------------------------------------------------------|

e|-----------------------------------------------|-------------------------------|
B|-16\15-13-13-15/16-16b-15-13h15-13h15-15-13-15~|---------------13--------------|
G|-----------------------------------------------|14-12----12-14----14-12--------|
D|-----------------------------------------------|------14-----------------------|
A|-----------------------------------------------|-------------------------------|
E|-----------------------------------------------|-------------------------------|
                                                     repeat this over

e|--------------------------------|
B|--------------------------------|
G|--8~----------------------------|
D|--8~----------------------------|
A|--6~----------------------------|
E|--------------------------------|   thats it

it may not be perfect but it sounds good to me. enjoy!

| /  slide up
| \  slide down
| h  hammer-on
| p  pull-off
| ~  vibrato
| +  harmonic
| x  Mute note
            
Tabs too difficult? Try these video lessons and learn fast.




comments powered by Disqus
↑ Back to top | Tablatures and chords are parodies/interpretations of the original songs. You may use it for private study, scholarship, research or language learning purposes only