>
 >
Stone Cold Hearted

Stone Cold Hearted Guitar Tabs

Joe Bonamassa - Stone Cold Hearted chords, tabs, tablatures, lyrics

Guitar lessons | Add/correct | Request | Top 50 tabs Artists:  A B C D E F G H I J K L M N O P Q R S T U V W X Y Z 0-9

Stone Cold Hearted Guitar Tabs – Joe Bonamassa

CD, Sheet music, Poster

Do you like Stone Cold Hearted? Share with your friends now
Tabs


Gtr I (E A D G B E) - 'Rhytm'
Gtr II (E A D G B E) - 'Lead'
Gtr III (E A D G B E) - 'Rhytm 2'

  Gtr III
|------------------------|------------------------|
|------------------------|------------------------|
|-7-5---------------5----|-7-5---------------5----|
|-----7-6-5-/3-3-/7---5--|-----7-6-5-/3-3-/7---5--|
|------------------------|------------------------|
|------------------------|------------------------|
|
| Gtr II
|------------------------|------------------------|
|------------------------|------------------------|
|-7-5---------------5----|-7-5---------------5----|
|-----7-6-5--3-3-/7---5--|-----7-6-5--3-3-/7---5--|
|------------------------|------------------------|
|------------------------|------------------------|


|------------------------|------------------------|
|------------------------|------------------------|
|-7-5---------------5----|-7-5---------------5----|
|-----7-6-5-/3-3-/7---5--|-----7-6-5-/3-3-/7---5--|
|------------------------|------------------------|
|------------------------|------------------------|
|
| S S S S S  E S  E e Q    S S S S S  E S  E e Q
|------------------------|------------------------|
|------------------------|------------------------|
|-7-5---------------5----|-7-5---------------5----|
|-----7-6-5--3-3-/7---5--|-----7-6-5--3-3-/7---5--|
|------------------------|------------------------|
|------------------------|------------------------|


  Gtr I
|----------x----x-x-x--------x--x-----------x--x----|
|--6----6--------------6--------------6-------------|
|--5----5--x----x-x-x--5-----x--x-----5-----x--x----|
|--4----4--------------4--------------4-------------|
|--5----5--x----x-x-x--5-----x--x-----5-----x--x----|
|---------------------------------------------------|
|
| Gtr II
|---------------------10----------------10----------|
|-13b15---13b15----------10-13-------10----13-------|
|------------------------------12b14----------12b14-|
|---------------------------------------------------|
|---------------------------------------------------|
|---------------------------------------------------|


|------------------x--x--x---x-------x-x---x-x-|
|--6------------6-----------------6------6-----|
|--5------------5--x--x--x---x----5--x-x-5-x-x-|
|--4------------4-----------------4------4-----|
|--5------------5--x--x--x---x----5--x-x-5-x-x-|
|----------------------------------------------|
|
|                        ~~~~~~~~~~~~
|-10-------------------------------------------|
|----------------------------------------------|
|-----12b13r12-10----12-10-(10)-(10)-----------|
|-----------------12---------------------------|
|----------------------------------------------|
|----------------------------------------------|


|--------------x--x-----x--x--------x--x--------x--x-|
|--6--------6-----------------6-----------6----------|
|--5--------5--x--x-----x--x--5-----x--x--5-----x--x-|
|--4--------4-----------------4-----------4----------|
|--5--------5--x--x-----x--x--5-----x--x--5-----x--x-|
|----------------------------------------------------|
|
|-------15----15-16p15----------------15-13-12-------|
|-18b20----18----------18-15-------------------13----|
|----------------------------17-14-17-------------12-|
|----------------------------------------------------|
|----------------------------------------------------|
|----------------------------------------------------|


|---------------x--x--x--x--------x--x-----x--x-|
|--6---------6--------------6-----------6-------|
|--5---------5--x--x--x--x--5-----x--x--5--x--x-|
|--4---------4--------------4-----------4-------|
|--5---------5--x--x--x--x--5-----x--x--5--x--x-|
|-----------------------------------------------|
|
|-----------------------------------------------|
|-----------------------------------------------|
|-10--12----12-10-------------------------------|
|--------12-------12-10----12----10-------------|
|-----------------------12----12----10----------|
|--------------------------------------13-10\---|


  Gtr I
|------x-x-x-x---x-x---x-x-|------x-x-x-x---x-x---x-x-|
|-6--6---------6-----6-----|-6--6---------6-----6-----|
|-5--5-x-x-x-x-5-x-x-5-x-x-|-5--5-x-x-x-x-5-x-x-5-x-x-|
|-4--4---------4-----4-----|-4--4---------4-----4-----|
|-5--5-x-x-x-x-5-x-x-5-x-x-|-5--5-x-x-x-x-5-x-x-5-x-x-|
|--------------------------|--------------------------|
|
| Gtr I
|------x-x-x-x---x-x---x-x-|------x-x-x-x---x-x---x-x-|
|-6--6---------6-----6-----|-6--6---------6-----6-----|
|-5--5-x-x-x-x-5-x-x-5-x-x-|-5--5-x-x-x-x-5-x-x-5-x-x-|
|-4--4---------4-----4-----|-4--4---------4-----4-----|
|-5--5-x-x-x-x-5-x-x-5-x-x-|-5--5-x-x-x-x-5-x-x-5-x-x-|
|--------------------------|--------------------------|


|------x-x-x-x---x-x---x-x-|------x-x-x-x---x-x---x-x-|
|-6--6---------6-----6-----|-6--6---------6-----6-----|
|-5--5-x-x-x-x-5-x-x-5-x-x-|-5--5-x-x-x-x-5-x-x-5-x-x-|
|-4--4---------4-----4-----|-4--4---------4-----4-----|
|-5--5-x-x-x-x-5-x-x-5-x-x-|-5--5-x-x-x-x-5-x-x-5-x-x-|
|--------------------------|--------------------------|
|
|------x-x-x-x---x-x---x-x-|------x-x-x-x---x-x---x-x-|
|-6--6---------6-----6-----|-6--6---------6-----6-----|
|-5--5-x-x-x-x-5-x-x-5-x-x-|-5--5-x-x-x-x-5-x-x-5-x-x-|
|-4--4---------4-----4-----|-4--4---------4-----4-----|
|-5--5-x-x-x-x-5-x-x-5-x-x-|-5--5-x-x-x-x-5-x-x-5-x-x-|
|--------------------------|--------------------------|


|------x-x-x-x---x-x---x-x-|------x-x-x-x---x-x---x-x-|
|-6--6---------6-----6-----|-6--6---------6-----6-----|
|-5--5-x-x-x-x-5-x-x-5-x-x-|-5--5-x-x-x-x-5-x-x-5-x-x-|
|-4--4---------4-----4-----|-4--4---------4-----4-----|
|-5--5-x-x-x-x-5-x-x-5-x-x-|-5--5-x-x-x-x-5-x-x-5-x-x-|
|--------------------------|--------------------------|
|
|------x-x-x-x---x-x---x-x-|------x-x-x-x---x-x---x-x-|
|-6--6---------6-----6-----|-6--6---------6-----6-----|
|-5--5-x-x-x-x-5-x-x-5-x-x-|-5--5-x-x-x-x-5-x-x-5-x-x-|
|-4--4---------4-----4-----|-4--4---------4-----4-----|
|-5--5-x-x-x-x-5-x-x-5-x-x-|-5--5-x-x-x-x-5-x-x-5-x-x-|
|--------------------------|--------------------------|


                                            <
|------x-x-x-x---x-x---x-x-|------x-x-x-x---x-x---x-x-|
|-6--6---------6-----6-----|-6--6---------6-----6-----|
|-5--5-x-x-x-x-5-x-x-5-x-x-|-5--5-x-x-x-x-5-x-x-5-x-x-|
|-4--4---------4-----4-----|-4--4---------4-----4-----|
|-5--5-x-x-x-x-5-x-x-5-x-x-|-5--5-x-x-x-x-5-x-x-5-x-x-|
|--------------------------|--------------------------|
|
|                                           <
|------x-x-x-x---x-x---x-x-|------x-x-x-x---x-x---x-x-|
|-6--6---------6-----6-----|-6--6---------6-----6-----|
|-5--5-x-x-x-x-5-x-x-5-x-x-|-5--5-x-x-x-x-5-x-x-5-x-x-|
|-4--4---------4-----4-----|-4--4---------4-----4-----|
|-5--5-x-x-x-x-5-x-x-5-x-x-|-5--5-x-x-x-x-5-x-x-5-x-x-|
|--------------------------|--------------------------|


  Gtr III
|--------------|--------------|
|--------------|--------------|
|--------------|-^3----(3)----|
|-^5----(5)----|-^3----(3)----|
|-^5----(5)----|-^1----(1)----|
|-^3----(3)----|--------------|
|
| Gtr II
|--------------|--------------|
|--------------|-^3----(3)----|
|-^4----(4)----|-^3----(3)----|
|-^5----(5)----|-^3----(3)----|
|-^5----(5)----|-^1----(1)----|
|-^3----(3)----|--------------|


  Gtr I
|------------------x-----x--x-----x-----------x--x-----------x--x-|
|--6------------6--------------------6--------------6-------------|
|--5------------5--x-----x--x-----x--5--------x--x--5--------x--x-|
|--4------------4--------------------4--------------4-------------|
|--5------------5--x-----x--x-----x--5--------x--x--5--------x--x-|
|-----------------------------------------------------------------|
|
| Gtr II
|-10--------10-10-------10----------10----------10----------10----|
|-----13b15-------13b15----13b15r13----13b15r13----13b15r13----13-|
|-----------------------------------------------------------------|
|-----------------------------------------------------------------|
|-----------------------------------------------------------------|
|-----------------------------------------------------------------|


|--------------x--x-----x--x--------x-x----x-x-|
|--6---------6----------------6----------6-----|
|--5---------5-x--x-----x--x--5-----x-x--5-x-x-|
|--4---------4----------------4----------4-----|
|--5---------5-x--x-----x--x--5-----x-x--5-x-x-|
|----------------------------------------------|
|
|                                        ~~
|-15--------15---------15----20b22-20----------|
|-----18b20------18b20----18-------------------|
|---------------------------------------19-----|
|----------------------------------------------|
|----------------------------------------------|
|----------------------------------------------|


  Gtr III
|-------------|--------------|
|-------------|--------------|
|-------------|-^3----(3)----|
|-5----(5)----|-^3----(3)----|
|-5----(5)----|-^1----(1)----|
|-3----(3)----|--------------|
|
| Gtr II
|-------------|--------------|
|-------------|-^3----(3)----|
|-4----(4)----|-^3----(3)----|
|-5----(5)----|-^3----(3)----|
|-5----(5)----|-^1----(1)----|
|-3----(3)----|--------------|


|-------------|-------------------|
|-------------|-------------------|
|-2----(2)----|-5-------(5)-------|
|-2----(2)----|-5-------(5)-------|
|-0----(0)----|-3-------(3)-------|
|-------------|-------------------|
|
|               <
|-------------|-------------------|
|-------------|-------------------|
|-2----(2)----|-------------------|
|-2----(2)----|-5-5-5-5--5--5-5-5-|
|-0----(0)----|-3-3-3-3--3--3-3-3-|
|-------------|-------------------|


  Gtr I
|----------x----x-x-x--------x--x-----------x--x----|
|--6----6--------------6--------------6-------------|
|--5----5--x----x-x-x--5-----x--x-----5-----x--x----|
|--4----4--------------4--------------4-------------|
|--5----5--x----x-x-x--5-----x--x-----5-----x--x----|
|---------------------------------------------------|
|
| Gtr II
|---------------------10----------------10----------|
|-13b15---13b15----------10-13-------10----13-------|
|------------------------------12b14----------12b14-|
|---------------------------------------------------|
|---------------------------------------------------|
|---------------------------------------------------|


|------------------x--x--x---x-------x-x---x-x-|
|--6------------6-----------------6------6-----|
|--5------------5--x--x--x---x----5--x-x-5-x-x-|
|--4------------4-----------------4------4-----|
|--5------------5--x--x--x---x----5--x-x-5-x-x-|
|----------------------------------------------|
|
|                        ~~~~~~~~~~~~
|-10-------------------------------------------|
|----------------------------------------------|
|-----12b13r12-10----12-10-(10)-(10)-----------|
|-----------------12---------------------------|
|----------------------------------------------|
|----------------------------------------------|


|-----------x-----x--x---x---x-x------x--x-|
|--6-----6-----------------6-----6---------|
|--5-----5--x-----x--x---x-5-x-x-5----x--x-|
|--4-----4-----------------4-----4---------|
|--5-----5--x-----x--x---x-5-x-x-5----x--x-|
|------------------------------------------|
|
|                    ~~~~
|-20b22-20-20b22-20------------------19-20-|
|------------------------------------------|
|-------------------19---------------------|
|------------------------------------------|
|------------------------------------------|
|------------------------------------------|


|---------------x--x--x--x--------x--x-----x--x-|
|--6---------6--------------6-----------6-------|
|--5---------5--x--x--x--x--5-----x--x--5--x--x-|
|--4---------4--------------4-----------4-------|
|--5---------5--x--x--x--x--5-----x--x--5--x--x-|
|-----------------------------------------------|
|
|-17-----17-------------------------------------|
|-----18----18-15-18-17-------------------------|
|-----------------------19-17-------------------|
|-----------------------------19-18-17----------|
|--------------------------------------20-17\---|
|-----------------------------------------------|


  Gtr I
|------x-x-x-x---x-x---x-x-|------x-x-x-x---x-x---x-x-|
|-6--6---------6-----6-----|-6--6---------6-----6-----|
|-5--5-x-x-x-x-5-x-x-5-x-x-|-5--5-x-x-x-x-5-x-x-5-x-x-|
|-4--4---------4-----4-----|-4--4---------4-----4-----|
|-5--5-x-x-x-x-5-x-x-5-x-x-|-5--5-x-x-x-x-5-x-x-5-x-x-|
|--------------------------|--------------------------|
|
| Gtr I
|------x-x-x-x---x-x---x-x-|------x-x-x-x---x-x---x-x-|
|-6--6---------6-----6-----|-6--6---------6-----6-----|
|-5--5-x-x-x-x-5-x-x-5-x-x-|-5--5-x-x-x-x-5-x-x-5-x-x-|
|-4--4---------4-----4-----|-4--4---------4-----4-----|
|-5--5-x-x-x-x-5-x-x-5-x-x-|-5--5-x-x-x-x-5-x-x-5-x-x-|
|--------------------------|--------------------------|


|------x-x-x-x---x-x---x-x-|------x-x-x-x---x-x---x-x-|
|-6--6---------6-----6-----|-6--6---------6-----6-----|
|-5--5-x-x-x-x-5-x-x-5-x-x-|-5--5-x-x-x-x-5-x-x-5-x-x-|
|-4--4---------4-----4-----|-4--4---------4-----4-----|
|-5--5-x-x-x-x-5-x-x-5-x-x-|-5--5-x-x-x-x-5-x-x-5-x-x-|
|--------------------------|--------------------------|
|
|------x-x-x-x---x-x---x-x-|------x-x-x-x---x-x---x-x-|
|-6--6---------6-----6-----|-6--6---------6-----6-----|
|-5--5-x-x-x-x-5-x-x-5-x-x-|-5--5-x-x-x-x-5-x-x-5-x-x-|
|-4--4---------4-----4-----|-4--4---------4-----4-----|
|-5--5-x-x-x-x-5-x-x-5-x-x-|-5--5-x-x-x-x-5-x-x-5-x-x-|
|--------------------------|--------------------------|


|------x-x-x-x---x-x---x-x-|------x-x-x-x---x-x---x-x-|
|-6--6---------6-----6-----|-6--6---------6-----6-----|
|-5--5-x-x-x-x-5-x-x-5-x-x-|-5--5-x-x-x-x-5-x-x-5-x-x-|
|-4--4---------4-----4-----|-4--4---------4-----4-----|
|-5--5-x-x-x-x-5-x-x-5-x-x-|-5--5-x-x-x-x-5-x-x-5-x-x-|
|--------------------------|--------------------------|
|
|------x-x-x-x---x-x---x-x-|------x-x-x-x---x-x---x-x-|
|-6--6---------6-----6-----|-6--6---------6-----6-----|
|-5--5-x-x-x-x-5-x-x-5-x-x-|-5--5-x-x-x-x-5-x-x-5-x-x-|
|-4--4---------4-----4-----|-4--4---------4-----4-----|
|-5--5-x-x-x-x-5-x-x-5-x-x-|-5--5-x-x-x-x-5-x-x-5-x-x-|
|--------------------------|--------------------------|


|------x-x-x-x---x-x---x-x-|------x-x-x-x---x-x---x-x-|
|-6--6---------6-----6-----|-6--6---------6-----6-----|
|-5--5-x-x-x-x-5-x-x-5-x-x-|-5--5-x-x-x-x-5-x-x-5-x-x-|
|-4--4---------4-----4-----|-4--4---------4-----4-----|
|-5--5-x-x-x-x-5-x-x-5-x-x-|-5--5-x-x-x-x-5-x-x-5-x-x-|
|--------------------------|--------------------------|
|
|------x-x-x-x---x-x---x-x-|------x-x-x-x---x-x---x-x-|
|-6--6---------6-----6-----|-6--6---------6-----6-----|
|-5--5-x-x-x-x-5-x-x-5-x-x-|-5--5-x-x-x-x-5-x-x-5-x-x-|
|-4--4---------4-----4-----|-4--4---------4-----4-----|
|-5--5-x-x-x-x-5-x-x-5-x-x-|-5--5-x-x-x-x-5-x-x-5-x-x-|
|--------------------------|--------------------------|


  Gtr III
|--------------|--------------|
|--------------|--------------|
|--------------|-^3----(3)----|
|-^5----(5)----|-^3----(3)----|
|-^5----(5)----|-^1----(1)----|
|-^3----(3)----|--------------|
|
| Gtr II
|--------------|--------------|
|--------------|-^3----(3)----|
|--4----(4)----|-^3----(3)----|
|--5----(5)----|-^3----(3)----|
|--5----(5)----|-^1----(1)----|
|--3----(3)----|--------------|


  Gtr I
|----------x-x-x-x-----x-x-----x-x-|----------x-x-x-x-----x-x---x-x--|
|-6------6---------6-------6-------|-6------6----------6------6------|
|-5------5-x-x-x-x-5---x-x-5---x-x-|-5------5-x-x-x-x--5--x-x-5-x-x--|
|-4------4---------4-------4-------|-4------4----------4------4------|
|-5------5-x-x-x-x-5---x-x-5---x-x-|-5------5-x-x-x-x--5--x-x-5-x-x--|
|----------------------------------|---------------------------------|
|
| Gtr II
| PM-|     PM--|         PM  PM                     ~~~~~~
|------------------------------1---|---------------------------------|
|----------------------1---3-----3-|-1-------------------------------|
|----------------0-1-2---2---2-----|----2-1-0------------------------|
|--------------3-------------------|----------3-0---0-(0)------------|
|------3-5-3-5---------------------|--------------3------------------|
|-3--5-----------------------------|---------------------------------|





Comments


Popular Joe Bonamassa tabs & chords
Stop Bass Tabs
The Ballad Of John Henry Bass Tabs
A Place In My Heart Chords
I Got All That You Need Chords
Dirt In My Pocket Tabs
Lonesome Road Blues Tabs
Man Of Many Words Tabs
Reconsider Baby Tabs
The Ballad Of John Henry 3 Tabs
A Place In My Heart Ukulele


Song lyrics



↑ Back to top | Tablatures and chords are parodies/interpretations of the original songs. You may use it for private study, scholarship, research or language learning purposes only
© 2014 AZChords.com Contact us | Privacy policy | DMCA | Add/correct tabs | Request tabs | Top 50 tabs