» » »

Steal Your Heart Away Tabs (ver.1)

Artists:  A B C D E F G H I J K L M N O P Q R S T U V W X Y Z # 

Steal Your Heart Away Tabs (ver.1)

Joe Bonamassa
Rating:
0/5 (0 votes)

Hard to play? Try these video lessons and learn fast.
                
This tab is for the song 'Steal Your Heart Away' from the 'Black Rock'-album.
I don't think everything is 100% correct, but just use it to make your own
version of it. The solo was kinda hard, since it's so fast. I hope I didn't
miss any notes there.

Have fun with it and feel free to comment.


--------
Intro
--------
e|---------------------------|----|--------------|
B|---------------------------|----|--------11----|
G|---------------------------|-x3-|--------13b15-|
D|-------4-------------------|----|--------------|
A|---------6-4-----4----2----|----|--------------|
E|-4-5-6-------4-6---4----2--|----|-1~-----------|

--------
Verse 1
--------
e|---------------------------------------------------------------------------|
B|-----7-7-7----7-7-7-7------------------------------------------------------|
G|-6/8-8-8-8--6-8-8-8-8--Repeat the second part until the end of the verse---|
D|-6/8-8-8-8--6-8-8-8-8------------------------------------------------------|
A|-4/6-6-6-6--6-6-6-6-6------------------------------------------------------|
E|---------------------------------------------------------------------------|

--------
Chorus
--------
e|------------------------------|--------------------------------------------|
B|-4----------------------------|-----7-7-7----7-7-7-7-----------------------|
G|-4----------------------------|-6/8-8-8-8--6-8-8-8-8-----------------------|
D|-6----------------------------|-6/8-8-8-8--6-8-8-8-8-----------------------|
A|-x----------------------------|-4/6-6-6-6--6-6-6-6-6-----------------------|
E|-4----------------------------|--------------------------------------------|
  Steal your heart, away baby!    Steal your heart, away.

e|---------------------------------------------------------------------------|
B|---------------------------------------------------------------------------|
G|---------------------------------------------------------------------------|
D|-9---------------------------------------8---------------------------------|
A|-9---------------------------------------8---------------------------------|
E|-7---------------------------------------6---------------------------------|
  I want to steal, your heart away. Yes I do, and I have to say.

e|---------------------------------------------------------------------------|
B|---------------------------------------------------------------------------|
G|-8--8----------8-----------------------------------------------------------|
D|-8--8--8-9--8--8-----------------------------------------------------------|
A|-6--6--8-9--8--6------11-12-13~--------------------------------------------|
E|-------6-7--6------14------------------------------------------------------|

Verse 2 (same as verse 1)

Chorus

--------
Verse 3
--------
Joe plays some extra licks here. He ends this verse with:
e|---------------------------------------------------------------------------|
B|---------------------------------------------------------------------------|
G|-13b15r13p11-13~-----------------------------------------------------------|
D|---------------------------------------------------------------------------|
A|---------------------------------------------------------------------------|
E|---------------------------------------------------------------------------|

In the chorus after verse 3, he plays something like this:
e|--------------14-11--------------------------------------------------------|
B|----------12---------13b14-12----------------------------------------------|
G|-13-11-13------------------------------------------------------------------|
D|---------------------------------------------------------------------------|
A|---------------------------------------------------------------------------|
E|---------------------------------------------------------------------------|
And this very fast one:
e|-16-14---------------------------------------------------------------------|
B|-------16-14-------14------------------------------------------------------|
G|-------------15-15----13-13b14--13-13b14r13-11----13-11--------------------|
D|-----------------------------------------------13-------13-11--------------|
A|--------------------------------------------------------------13-11--------|
E|--------------------------------------------------------------------14-11--|

--------
Solo
--------
This part has multiple guitartracks. I could have missed some parts or just
did not tab it. I think this is the 'main' part.
e|--------------------------------------------6-9-6-9-6\5--------------------|
B|------------------------------------------7--------------------------------|
G|---------------------------------------/8----------------8p6b7-------------|
D|--------------------------------4------------------------------------------|
A|-6~-------------------------------4-6--------------------------------------|
E|--------------------------4-5-6--------------------------------------------|
   ^Tremolo-pick this note.

e|16b18-14-13-------13----------11-------------------------------------------|
B|------------16-14----16-14-11----14-11----14-11----------------------------|
G|---------------------------------------13-------13b15p11-------------------|
D|---------------------------------------------------------13-11-------------|
A|---------------------------------------------------------------13-11-------|
E|---------------------------------------------------------------------14-11-|

e|---------14b16-14b16~--|
B|-----------------------|
G|-6t8~------------------|
D|-----------------------|
A|-----------------------|
E|-----------------------|

e|-16----------------16-19-18-16----18-16-------16---------------------------|
B|----19-16----16-19-------------19-------19-18----19-16----19-16-------16---|
G|----------18-------------------------------------------18-------18-15------|
D|---------------------------------------------------------------------------|
A|---------------------------------------------------------------------------|
E|---------------------------------------------------------------------------|

e|-------------------------------------------11-14-13-11----13-11------------|
B|-14-------------------------11-14----11h14-------------14-------14-(11)----|
G|----15-13-11----13----11-13-------13---------------------------------------|
D|-------------13----13------------------------------------------------------|
A|---------------------------------------------------------------------------|
E|---------------------------------------------------------------------------|

e|-11-----------------------------------|
B|----14-11-----------------------------|
G|----------13-11-----------------------|
D|----------------13-11-----------------|
A|----------------------13-11-----------|
E|----------------------------14-11~-\--|

e|---------------------------------------------------------------------------|
B|---------------------------------------------------------------------------|
G|---6-8-b10-8-b10-8-b10-8-b10-8b11-9b13r9\8--6-8-6--------------------------|
D|-8------------------------------------------------8-7-6-4-6b8r6p4----------|
A|------------------------------------------------------------------6\-------|
E|---------------------------------------------------------------------------|

e|-------11-13-14/16---14-16/18---16-18/19---18-19-21---18-21-21b23-21-19-18-|
B|-14b16---------------------------------------------------------------------|
G|---------------------------------------------------------------------------|
D|---------------------------------------------------------------------------|
A|---------------------------------------------------------------------------|
E|---------------------------------------------------------------------------|

e|----19-18-------18---------------------------------------------------------|
B|-21-------21-19----19-18-16-19-18-16-14----------------------------16------|
G|----------------------------------------15-13-11----13----11-13/15----15---|
D|-------------------------------------------------13----13------------------|
A|---------------------------------------------------------------------------|
E|---------------------------------------------------------------------------|

e|-----------------------------16/18-14--------------------------------------|
B|--------------------------16----------16-------14-11-----------------------|
G|-13\11-13----11-------/15----------------15-13-------13-11-b13r11----------|
D|----------13----13~-----------------------------------------------13~-\----|
A|---------------------------------------------------------------------------|
E|---------------------------------------------------------------------------|

e|---------------------------------------------------------------------------|
B|----------11--16b18\-------------------------------------------------------|
G|-------11------------------------------------------------------------------|
D|----12---------------------------------------------------------------------|
A|-13------------------------------------------------------------------------|
E|---------------------------------------------------------------------------|


The rest is basically the same, except a lick he plays in the last chorus.
I couldn't hear it very good, but I got the start and the last note.

e|---------------------------------|
B|-14-11-----------?---------------|
G|-------13-13\11----?-------13~---|
D|---------------------?-----------|
A|-----------------------?---------|
E|---------------------------------|

e|---------------------------------------------------------------------------|
B|-19b22~--pb20b22-20b23-19b21--16----16-19-16h19p16----16~-\----------------|
G|---------------------------------18----------------18----------------------|
D|---------------------------------------------------------------------------|
A|---------------------------------------------------------------------------|
E|---------------------------------------------------------------------------|

e|---------------------------------------------------------------------------|
B|---------------------------------------------------------------------------|
G|-8--8----------8~----------------------------------------------------------|
D|-8--8--8-9--8--8~----------------------------------------------------------|
A|-6--6--8-9--8--6~----------------------------------------------------------|
E|-------6-7--6--------------------------------------------------------------|



************************************

| /   slide up
| \   slide down
| h   hammer-on
| p   pull-off
| ~   vibrato
| +   harmonic
| x   Mute note
| b   Bend
| pb  Pre-bend
| br  Bend release
| pbr Pre-bend release
| brb Bend release bend
| t   Trill (.h.p.h.p.h.p etc.)

************************************
            
Hard to play? Try these video lessons and learn fast. | Correct




comments powered by Disqus
↑ Back to top | Tablatures and chords are parodies/interpretations of the original songs. You may use it for private study, scholarship, research or language learning purposes only