» » »

Joe Bonamassa, High Water Everywhere Tabs (ver.1)

Artists:  A B C D E F G H I J K L M N O P Q R S T U V W X Y Z # 

High Water Everywhere Tabs (ver.1)

Joe Bonamassa Tabs
 Rating:
4/5 (11 votes)
High Water Everywhere lessons Tabs too difficult? Try these video lessons and learn fast
                Hey, this is the whole song "High Water Everywhere" By Joe Bonamassa off his new album,
& Me."  I just wrote down the actual notes he's playing, there are some places where he
in some muted and open strings (like in the main riff), but this should be all right, if 
Please don't pass this off as your own work, this took a lot of time and energy to make
it was right.  Thanks.


Main Riff (play 2x)
-----------------3---------------------------------------------------------------|
-----------------3---------------------------------------------------------------|
---------------------------------------4-3---------------------------------------|
----2--5-2-----2----------2--5-2-------3-2---------------------------------------|
---------------------------------------4-3---------------------------------------|
-3(b)------3(b)-------3(b)--------(3)--------------------------------------------|

Verse (repeat):
---------------------------------------------------3-------------------0--------|
---------------------------------------------------3----------------------------|
---------------------------------------------------------------------4-3--------|
--2-----2-----2--------2-0--0-2-5-----2--5-2-----2--------2--5-2-----3-2--------|
--2-----2-----2------------------------------------------------------4-3--------|
--0-(0)-0-(0)-0-(0)-3(b)----------3(b)-------3(b)-----3(b)-------(3)------------|

Then:

----------------------------------------------------------------------------------------|
----------------------------------------------------------------------------------------|
-2---2-2--2-2--2-2--2-2---3--3-3---6--6-6-----------------------------------------------|
-1------(1)-----------------------------------------------------------------------------|
-2--2----2----2---2----2/3--3---3/6--6--------------------------------------------------|
-------------------------------------------------------------------------\--------------|

Then play main riff 1x and verse.

pre-solo (1:44):

-----------------------------------|
-----------------------------------|
--1-2-3-4--------------------------|
-----------------------------------|
--1-2-3-4--------------------------|
-----------------------------------|

Solo (neck pickup on strat with tone control at around 2):

--17(R)-15-17-15----------------------------------------------------|
------------------15(r)-12------------------------------------------|
---------------------------14(B+R)-12----------12(h)14(p)12---------|
--------------------------------------14-12-14----------------------|
--------------------------------------------------------------------|
--------------------------------------------------------------------|

-------------------------------------------------------------------------------------|
--17(b)-17-17(PB)-17(b)-15-17-17(b)--12-15-12(h)15(p)12---12-------------------------|
--------------------------------------------------------12---14(B)-12-14-------------|
--------------------------------------------------------------------------14-14------|
-------------------------------------------------------------------------------------|
-------------------------------------------------------------------------------------|
                          *bend the D on the B string with 3rd finger
                           while simoultaneously bending the
                           A on the G string with
                           2nd finger, only playing the bent D, then once
                           the D is bent a whole step, mute D by lessening
                           pressure and pick the pre-bent A and release.
--15(b)-15--12---------------------------------------------------------------|
--------------12-15-15(b)-15(b)*---------------------------------------------|
-----------------------------*14(r)-12-12-14-14(b)/16(b)-12------------------|
------------------------------------------------------------14---------------|
-----------------------------------------------------------------------------|
-----------------------------------------------------------------------------|

------------------------------------------------------------|
--15(h)17-15-12---------------------------------------------|
----------------14(b+r)-12---12-14/16(b)-14-12--------------|
--------------------------14-------------------17(b)-14-14--|
------------------------------------------------------------|
------------------------------------------------------------|

Fills (over verse):
1.)
-15(b)-15-12-12-------------------------------------------------------------------|
----------------15(b)-12-15-12(h)15(p)12------------------------------------------|
----------------------------------------12-14(b+r)-12-----------------------------|
------------------------------------------------------14--------------------------|
----------------------------------------------------------------------------------|
----------------------------------------------------------------------------------|

2.)
----15(b)--------------------------------------------------------|
-----------------------------------------------------------------|
-/16-------------------------------------------------------------|
-----------------------------------------------------------------|
-----------------------------------------------------------------|
-----------------------------------------------------------------|

3.)
----------------------------------------------------------------------|
--12(b)---------------------------------------------------------------|
--------12--------------14-14(b)-14(b)-12--12(b)-12-------------------|
-----------14---12(h)14-----------------------------------------------|
--------------14------------------------------------------------------|
----------------------------------------------------------------------|

4.)
-----------------------12------------------------------------------|
-------------------------------------------------------------------|
--14(r)-12-14---12--------14(r)-12-14----12------------------------|
-------------14-----------------------14----14---------------------|
-------------------------------------------------------------------|
-------------------------------------------------------------------|

5.)
-15(b)-15-12-15-12-12----------------------------------------------------|
----------------------15-12----------------------------15----------------|
----------------------------14(b)-14-12-------12-14(b)----14(r)-12-------|
----------------------------------------12-14----------------------14----|
-------------------------------------------------------------------------|
-------------------------------------------------------------------------|

6.)                                                 *fret both the A
                                        (on E string) and E (on B String)
                                                     with third finger, while
                                                     picking both strings
-----------15-17-17(pb)-17(b+r)-15------------15(b)-17(b)-15-----------------|
------15-17-----------------------17-17-15-17-------*17(b)---17\15-12--------|
-14-16----------------------------------------------------------------14-12--|
-----------------------------------------------------------------------------|
-----------------------------------------------------------------------------|
-----------------------------------------------------------------------------|

7.) (Ending)(guitar in Open E with slide)
E---12-----------------------------------------------------------------------------|
B------12\10---10/12(v)-(12)(v)\---------------------------------------------------|
G#-----------12--------------------------------------------------------------------|
E------------------------12(v)\----------------------------------------------------|
B----------------------------------------------------------------------------------|
E----------------------------------------------------------------------------------|

End
            
Submit corrections

comments powered by Disqus
↑ Back to top | Joe Bonamassa Tabs for High Water Everywhere. Lyrics for acoustic guitar and electric guitar. Tablatures and chords are parodies/interpretations of the original songs. You may use it for private study, scholarship, research or language learning purposes only