>
 >
Faux Mantini

Faux Mantini Guitar Tabs

Joe Bonamassa - Faux Mantini chords, tabs, tablatures, lyrics

Guitar lessons | Add/correct | Request | Top 50 tabs Artists:  A B C D E F G H I J K L M N O P Q R S T U V W X Y Z 0-9

Faux Mantini Guitar Tabs – Joe Bonamassa

CD, Sheet music, Poster

Do you like Faux Mantini? Share with your friends now
Tabs
FAUX MANTINI
Joe Bonamassa
	

Music by Joe Bonamassa

     A5
     x 0 7 x 5 5
	
     Gsus2/A
     x 0 5 x 3 3
	
     Dsus4/A
     x 0 5 x 3 5
	
     D/A
     x 0 4 x 3 5

     Am7
     x 0 7 5 8 x

Gtr I (E A D G B E) - Standard
Gtr II (E A D G B E) - Standard


  A5              Gsus2/A5                Gsus2/A
  Gtr I
|-5-x-x-x-5-x-x-x-3---|-5-x-x-x-5-x-x-x-x-3---|
|-5-x-x-x-5-x-x-x-3---|-5-x-x-x-5-x-x-x-x-3---|
|-x-x-x-x-x-x-x-x-x---|-x-x-x-x-x-x-x-x-x-x---|
|-7-x-x-x-7-x-x-x-5---|-7-x-x-x-7-x-x-x-x-5---|
|-0-0-0-0-0-0-0-0-0-0-|-0-0-0-0-0-0-0-0-0-0-0-|
|---------------------|-----------------------|


  A5          N.C.Gsus2/A5      DsuD/ADsus4/A
  Gtr I
|-5-x-x-x-5-x-x-x-3---|-5-x-x-x-5--5--5---||
|-5-x-x-x-5-x-0-0-3---|-5-x-x-x-3--3--3---||
|-x-x-x-x-x-x-x-x-x---|-x-x-x-x-x--x--x---||
|-7-x-x-x-7-x-x-x-5---|-7-x-x-x-5--4--5---||
|-0-0-0-0-0-0-0-0-0-0-|-0-0-0-0-0--0--0---||
|---------------------|-------------------||
|
| Gtr II
|---------------------|-------------------||
|---------------------|---------------5-7-||
|---------------------|-------------------||
|---------------------|-------------------||
|---------------------|-------------------||
|---------------------|-------------------||


  A5              Gsus2/A5                  Gsus2/A
|-5-x-x-x-5-x-x-x-3---|-5---x-x-x-5-x-x-x-x-3---|
|-5-x-x-x-5-x-x-x-3---|-5---x-x-x-5-x-x-x-x-3---|
|-x-x-x-x-x-x-x-x-x---|-x---x-x-x-x-x-x-x-x-x---|
|-7-x-x-x-7-x-x-x-5---|-7---x-x-x-7-x-x-x-x-5---|
|-0-0-0-0-0-0-0-0-0-0-|-0---0-0-0-0-0-0-0-0-0-0-|
|---------------------|-------------------------|
|
|         ~
|---------------------|-------------------------|
|-8-7---5---------5---|-------------------------|
|---------7---------7-|-5h6---------------------|
|---------------------|-----7-------------------|
|---------------------|---------7-5---------5-7-|
|---------------------|-------------------------|


  A5                Gsus2/A A5        Dsus4D/A    Dsus4/A
|-5-x-x-x-5-x-x-x-x--3----|--5--x-x-x--5----5------5----|
|-5-x-x-x-5-x-x-x-x--3----|--5--x-x-x--3----3------3----|
|-x-x-x-x-x-x-x-x-x--x----|--x--x-x-x--x----x------x----|
|-7-x-x-x-7-x-x-x-x--5----|--7--x-x-x--5----4------5----|
|-0-0-0-0-0-0-0-0-0--0--0-|--0--0-0-0--0----0------0----|
|-------------------------|-----------------------------|
|
|-------------------------|-----------------------------|
|-------------------------|-----------------------10-12-|
|-------------------------|-----------------------------|
|-------------------------|-----------------------------|
|-4-----------------------|-----------------------------|
|---5---3-5---------(5)---|-(5)-------(5)--(5)-x/-------|


  A5                             Gsus2/A
|--5--x-x--x--5-----------x--x-x---3-----------|
|--5--x-x--x--5-----------x--x-x---3-----------|
|--x--x-x--x--x-----------x--x-x---x-----------|
|--7--x-x--x--7-----------x--x-x---5-----------|
|--0--0-0--0--0-----------0--0-0---0---0-------|
|----------------------------------------------|
|
|                    ~~~~~~~~~~~~~~~~~
|----10---12-12b13r(12)-(12)-----(12)----------|
|-13----------------------------------10-12-13-|
|----------------------------------------------|
|----------------------------------------------|
|----------------------------------x-----------|
|----------------------------------------------|


  A5                             Gsus2/A
|--5---------x--x-x--5--x-x--x-x--3----|
|--5---------x--x-x--5--x-x--x-x--3----|
|--x---------x--x-x--x--x-x--x-x--x----|
|--7---------x--x-x--7--x-x--x-x--5----|
|--0---------0--0-0--0--0-0--0-0--0--0-|
|--------------------------------------|
|
|            ~~~~
|-10-12b13r(12)-----10-----------------|
|----------------------13---12---10-12-|
|--------------------------------------|
|--------------------------------------|
|--------------------------------------|
|--------------------------------------|


  A5                     Gsus2/A A5         Dsus4/D/A       Dsus4/A
|--5--x-x--x--5--x-x-x-x--3----|--5--x-x--x--5------5-------5-|
|--5--x-x--x--5--x-x-x-x--3----|--5--x-x--x--3------3-------3-|
|--x--x-x--x--x--x-x-x-x--x----|--x--x-x--x--x------x-------x-|
|--7--x-x--x--7--x-x-x-x--5----|--7--x-x--x--5------4-------5-|
|--0--0-0--0--0--0-0-0-0--0--0-|--0--0-0--0--0------0-------0-|
|------------------------------|------------------------------|
|
|----12---10----10-------------|------------------------------|
|-13---------13----------13-12-|-13-12---10----12-(12)-(12)---|
|------------------------------|------------12----------------|
|------------------------------|------------------------------|
|------------------------------|-------------------------x----|
|------------------------------|------------------------------|


  A5                                  Gsus2/A
|--5-----x--x--x-----5-----x--x--x-----3----------|
|--5-----x--x--x-----5-----x--x--x-----3----------|
|--x-----x--x--x-----x-----x--x--x-----x----------|
|--7-----x--x--x-----7-----x--x--x-----5----------|
|--0-----0--0--0-----0-----0--0--0-----0-----0----|
|-------------------------------------------------|
|
|----------10-12-10----------------10-12-10-------|
|-10-12-13----------13-12-10-12-13----------13-12-|
|-------------------------------------------------|
|-------------------------------------------------|
|-------------------------------------------------|
|-------------------------------------------------|


  A5                                Gsus2/A
|--5-----x--x--x-----5-----x-x--x-x--3---------|
|--5-----x--x--x-----5-----x-x--x-x--3---------|
|--x-----x--x--x-----x-----x-x--x-x--x---------|
|--7-----x--x--x-----7-----x-x--x-x--5---------|
|--0-----0--0--0-----0-----0-0--0-0--0----0----|
|----------------------------------------------|
|
|----------10-12-10----------------------------|
|-10-12-13----------13-12-10-9-10-9-------9----|
|-----------------------------------12-10---12-|
|----------------------------------------------|
|----------------------------------------------|
|----------------------------------------------|


  A5                                         Gsus2/A
|--5------x----x---x------5-----x-x--x-x------3---------|
|--5------x----x---x------5-----x-x--x-x------3---------|
|--x------x----x---x------x-----x-x--x-x------x---------|
|--7------x----x---x------7-----x-x--x-x------5---------|
|--0------0----0---0------0-----0-0--0-0------0----0----|
|-------------------------------------------------------|
|
|-------------------------------------------------------|
|-------------------------------------------------------|
|-10-9------10---9--------9-----------------------------|
|------12------------12-x---12-10-9-10---x-9----10-9----|
|--------------------------------------------12------12-|
|-------------------------------------------------------|


  A5           Dsus4/D/A     N.C.
|--5----x--x-x--5------5-------||
|--5----x--x-x--3------3-------||
|--x----x--x-x--x------x-------||
|--7----x--x-x--5------4-------||
|--0----0--0-0--0------0-----0-||
|------------------------------||
|
|------------------------------||
|------------------------------||
|------------------------------||
|----9-------------------------||
|-10---12-10-9-10-12-(12)/---0-||
|--------------------------0---||


  N.C.
|-----------------------------|---------------------------------|
|-5p3---5-3-------------------|---------------------------------|
|-----5-----5p4-2-----4-2-----|---2-----------------------------|
|-----------------5-2-----2h4-|-5---5-4-2---4p2-----2-----------|
|-----------------------------|-----------5-----5-4---5p4-2-0---|
|-----------------------------|---------------------------------|
|
|-----------------------------|---------------------------------|
|-5p3---5-3-------------------|---------------------------------|
|-----x-----5-4-2-----4-2-----|---2-----------------------------|
|-----------------5-2-----2h4-|-5---5-4-2---4p2-----2-----------|
|-----------------------------|-----------5-----5-4---5p4-2-0---|
|-----------------------------|---------------------------------|


  A5                  Gsus2/A  A5
|--5-x-x-x---5--x-x-x---3----|---5--x-x-x-5--x-5---|
|--5-x-x-x---5--0-0-0---3----|---5--x-x-x-5--x-5---|
|--x-x-x-x---x--x-x-x---x----|---x--x-x-x-x--x-x---|
|--7-x-x-x---7--x-x-x---5----|---7--x-x-x-7--x-7---|
|--0-0-0-0---0--0-0-0---0--0-|---0--0-0-0-0--0-0-0-|
|----------------------------|---------------------|
|
|  ~~~~~~~~~~~~~~~~~~~~~~~~
|----------------------------|---------------------|
|-10-------(10)-------(10)---|-(10)----------------|
|----------------------------|---------------------|
|----------------------------|---------------------|
|----------------------------|-------------------0-|
|----------------------------|---------------------|


  N.C.
|-----------------------------|-----------------------------------|
|-5p3---5-3-------------------|-----------------------------------|
|-----5-----5-4-2-----4-2-----|---2-------------------------------|
|-----------------5-2-----2h4-|-5---5-4-2---4p2-------2-----------|
|-----------------------------|-----------5-----5--4----5p4-2-0---|
|-----------------------------|-----------------------------------|
|
|-----------------------------|-----------------------------------|
|-5p3---5-3-------------------|-----------------------------------|
|-----x-----5-4-2-----4-2-----|---2-------------------------------|
|-----------------5-2-----2h4-|-5---5-4-2---4p2-------2-----------|
|-----------------------------|-----------5-----5p(4)---5p4-2-0---|
|-----------------------------|-----------------------------------|


  A5                    Gsus2/A  A5                   Gsus2/A
|--5-----------5--x-x-x---3----|---5--x-x-x-5-x-x-x-x-3---|
|--5-----------5--x-x-x---3----|---5--x-x-x-5-x-x-x-x-3---|
|--x-----------x--x-x-x---x----|---x--x-x-x-x-x-x-x-x-x---|
|--7-----------7--x-x-x---5----|---7--x-x-x-7-x-x-x-x-5---|
|--0-0-(0)-0---0--0-0-0---0--0-|---0--0-0-0-0-0-0-0-0-0-0-|
|------------------------------|--------------------------|
|
|  ~~~~~~~~~~~~~~~~~~~~~~~~~~
|------------------------------|--------------------------|
|-10---------(10)-------(10)---|-(10)---------------------|
|------------------------------|--------------------------|
|------------------------------|--------------------------|
|------------------------------|--------------------------|
|------------------------------|------------------------3-|


  A5                  Gsus2/A A5        DsuD/ADsus4/A
|-5-x-x-x--5--x-x-x-x--3----|--5--x-x-x-5--5--(5)---||
|-5-x-x-x--5--x-x-x-x--3----|--5--x-x-x-3--3--(3)---||
|-x-x-x-x--x--x-x-x-x--x----|--x--x-x-x-x--x--------||
|-7-x-x-x--7--x-x-x-x--5----|--7--x-x-x-5--4---5----||
|-0-0-0-0--0--0-0-0-0--0--0-|--0--0-0-0-0--0---0----||
|---------------------------|-----------------------||
|
| ~~~~~~~~~~~~~~~~~~~~~~~~
|---------------------------|-----------------------||
|---------------------------|------------------5--7-||
|---------------------------|-----------------------||
|---------------------------|-----------------------||
|---------------------------|-----------------------||
|-5-------(5)---------(5)---|-(5)-------------------||


  A5                Gsus2/A5        Am7     Gsus2/A
|-5-x-x-x-5-x-x-x-x-3---|-5---x-x-x-x---x-x-3---|
|-5-x-x-x-5-x-x-x-x-3---|-5---x-x-x-8---x-x-3---|
|-x-x-x-x-x-x-x-x-x-x---|-x---x-x-x-5---x-x-x---|
|-7-x-x-x-7-x-x-x-x-5---|-7---x-x-x-7---x-x-5---|
|-0-0-0-0-0-0-0-0-0-0-0-|-0---0-0-0-0-0-0-0-0-0-|
|-----------------------|-----------------------|
|
|         ~
|-----------------------|-----------------------|
|-8-7---5-----------5---|-----------------------|
|---------7-----------7-|-5h6-------------------|
|-----------------------|-----7-----------------|
|-----------------------|---------7-5-------5-7-|
|-----------------------|-----------------------|


  A5              Gsus2/A A5        Dsus4D/A  Dsus4/A
|-5-x-x-x-5-x-x-x--3----|--5--x-x----5----5---(5)--|
|-5-x-x-x-5-x-x-x--3----|--5--x-x----3----3---(3)--|
|-x-x-x-x-x-x-x-x--x----|--x--x-x----x----x--------|
|-7-x-x-x-7-x-x-x--5----|--7--x-x----5----4----5---|
|-0-0-0-0-0-0-0-0--0--0-|--0--0-0-0--0----0----0---|
|-----------------------|--------------------------|
|
|-----------------------|--------------------------|
|-----------------------|--------------------------|
|-----------------------|----------------------xsx-|
|-----------------------|--------------------------|
|-4---------------------|--------------------------|
|---5---3-5-------(5)---|-(5)-------(5)--(5)-------|


  A5                                                  Gsus2/A
    PM--------------------------------------------|
|-5-----5-----------5-------|-5-----------5-----------3-------|
|-5-----5-----------5-------|-5-----------5-----------3-------|
|-x---x-x---x-x-x-x-x-------|-x---x-x-x---x---x-x-x---x-------|
|-7---x-7---x-x-x-x-7-------|-7---x-x-x---7---x-x-x---5-------|
|-0-0-0-0---0-0-0-0-0---0---|-0---0-0-0---0---0-0-0---0---0---|
|---------------------------|---------------------------------|
|
|---------------------------|---------------------------------|
|-------------------------5-|-6p5---------------5-6p5---------|
|-----------4h5p4---4s5-7---|-----7-5s4---4s5-7-------7-5s4---|
|-7-----5h7-------7---------|-----------7-------------------7-|
|---------------------------|---------------------------------|
|---------------------------|---------------------------------|


  A5                      Gsus2/A   A5    N.C.  Dsus4/A D/A    Dsus4/A
      PM------------------------------------|
|-5-----------5-----------3-------|-5------------5-------5-----5-|
|-5-----------5-----------3-------|-5------------3-------3-----3-|
|-x---x-x-x---x---x-x-x---x-------|-x---x--------x-------x-----x-|
|-7---x-x-x---7---x-x-x---5-------|-7---x-5------5-------4-----5-|
|-0---0-0-0---0---0-0-0---0---0---|-0---0-0-0----0-------0-----0-|
|---------------------------------|------------------------------|
|
|---------------------------------|------------------------------|
|-------5-6-5---------------------|------------------------------|
|-4s5h7-------7-5s4---5-4---------|------------------------------|
|-------------------7-----7-5---7-|-5------------0---------------|
|-----------------------------8---|---8-7-5-----(0)---0-(0)-7\---|
|---------------------------------|---------8-7-----3----------0-|


  A5                                           Gsus2/A
          PM------|                 PM-------|
|-5-x-x-------------5---|--5-x-x---(5)---------3----|
|-5-x-x-------------5---|--5-x-x---(5)---------3----|
|-x-x-x---x---x-x---x---|--x-x-x----x--x-x-x-x-x----|
|-7-x-x---7---x-x---7---|--7-x-x----7--x-x-x-x-5----|
|-0-0-0-0-0---0-0-0-0-0-|--0-0-0-0--0--0-0-0-0-0--0-|
|-----------------------|---------------------------|
|
| ~                        ~~
|-----------------5-7-8-|-10-----8-10--7---8---7----|
|-5-------5-7-8---------|------------------------10-|
|-----------------------|---------------------------|
|-----------------------|---------------------------|
|-----------------------|---------------------------|
|-----------------------|---------------------------|


  A5                 Gsus2/A5      DsusD/A  Dsus4/A
|-5-x-x--x-5-x-x-x-x-3---|-5-x-x-x-5----5---5-|
|-5-x-x--x-5-x-x-x-x-3---|-5-x-x-x-3----3---3-|
|-x-x-x--x-x-x-x-x-x-x---|-x-x-x-x-x----x---x-|
|-7-x-x--x-7-x-x-x-x-5---|-7-x-x-x-5----4---5-|
|-0-0-0--0-0-0-0-0-0-0-0-|-0-0-0-0-0----0---0-|
|------------------------|--------------------|
|
|                                    ~~~~~~
|---7--------------------|--------------------|
|-8-----10-8-7S==5-------|--------------------|
|--------------------7-5S|=4S5---7S9----------|
|------------------------|-----------7-(7)----|
|------------------------|--------------------|
|------------------------|--------------------|


  A5                    Gsus2/A   A5                    Gsus2/A
|-5-x-x--x---5--x-x-x-x-3---x-x-|-5-x-x--x---5--x-x-x-x-3---x-x-|
|-5-x-x--x---5--x-x-x-x-3---x-x-|-5-x-x--x---5--x-x-x-x-3---x-x-|
|-x-x-x--x---x--x-x-x-x-x---x-x-|-x-x-x--x---x--x-x-x-x-x---x-x-|
|-7-x-x--x---7--x-x-x-x-5---x-x-|-7-x-x--x---7--x-x-x-x-5---x-x-|
|-0-0-0--0---0--0-0-0-0-0---0-0-|-0-0-0--0---0--0-0-0-0-0---0-0-|
|-------------------------------|-------------------------------|
|
| ~                               ~
|-------------------------------|-------------------------------|
|-5-----(5)-(5)-5p3---3-5p3---3-|-5-----(5)-(5)-5p3---3-5p3---3-|
|-------------------5-------5---|-------------------5-------x---|
|-------------------------------|-------------------------------|
|--------x----------------------|--------x----------------------|
|-------------------------------|-------------------------------|


  A5                    Dsus4/A    A5          Dsus4/A  D/A     Dsus4/A
|-5-x-x--x--5---x-x-x-x--5-------|-5---x-x-x---5--------5-------5---|
|-5-x-x--x--5---x-x-x-x--3-------|-5---x-x-x---3--------3-------3---|
|-x-x-x--x--x---x-x-x-x--x-------|-x---x-x-x---x--------x-------x---|
|-7-x-x--x--7---x-x-x-x--5-------|-7---x-x-x---5--------4-------5---|
|-0-0-0--0--0---0-0-0-0--0---0---|-0---0-0-0---0--------0-------0---|
|--------------------------------|----------------------------------|
|
|-----------------0---0----0---0-|-----------0---0----0---0---------|
|-5-----(5)---3-5---8---10---8---|-5-3---3-5---8---10---8---5-3---3-|
|-----------4--------------------|-----4------------------------4---|
|--------------------------------|----------------------------------|
|--------x-----------------------|----------------------------------|
|--------------------------------|----------------------------------|


  A5                       Gsus2/A   A5                       Gsus2/A
|-5---x-x--x---5---x-x-x-x-3-------|--5---x-x-x---5---x-x-x-x-3---x-x-|
|-5---x-x--x---5---x-x-x-x-3-------|--5---x-x-x---5---x-x-x-x-3---x-x-|
|-x---x-x--x---x---x-x-x-x-x-------|--x---x-x-x---x---x-x-x-x-x---x-x-|
|-7---x-x--x---7---x-x-x-x-5-------|--7---x-x-x---7---x-x-x-x-5---x-x-|
|-0---0-0--0---0---0-0-0-0-0---0---|--0---0-0-0---0---0-0-0-0-0---0-0-|
|----------------------------------|----------------------------------|
|
|---0---0----0---0-----------0---0-|----0---0-----------0-1-0---------|
|-5---8---10---8---5-3---3-5---8---|-10---8---5-3-----3-------3-1p0---|
|----------------------4-----------|--------------4-5---------------2-|
|----------------------------------|----------------------------------|
|----------------------------------|----------------------------------|
|----------------------------------|----------------------------------|


  A5                      Gsus2/A   A5        DsusD/A    N.C.
|-5---x-x-x---5---x-x-x-x-3-------|-5---x-x-x-5----5-------||
|-5---x-x-x---5---x-x-x-x-3-------|-5---x-x-x-3----3-------||
|-x---x-x-x---x---x-x-x-x-x-------|-x---x-x-x-x----x-------||
|-7---x-x-x---7---x-x-x-x-5-------|-7---x-x-x-5----4-------||
|-0---0-0-0---0---0-0-0-0-0---0---|-0---0-0-0-0----0-----0-||
|---------------------------------|------------------------||
|
|---------------------------------|------------------------||
|-1p0---0-1p0---0-1p0---0---------|------------------------||
|-----2-------2-------2---2p0---0-|------------------------||
|-----------------------------2---|-2p0---0----------------||
|---------------------------------|-----3---3-2-0-(0)-7\---||
|---------------------------------|------------------------||


  N.C.
|----------------------------------|---------------------------------|
|--5p=3-----5--3-------------------|---------------------------------|
|--------5-------5-4-2-----4-2-----|---2-----------------------------|
|----------------------5-2-----2h4-|-5---5-4-2---4p2-----2-----------|
|-(0)(0)---------------------------|-----------5-----5-4---5p4-2-0---|
|----------------------------------|---------------------------------|
|
|----------------------------------|---------------------------------|
|--5p=3-----5--3-------------------|---------------------------------|
|--------5-(5)---5-4-2-----4-2-----|---2-----------------------------|
|----------------------5-2-----2-4-|-5---5-4-2---4-2-----2-----------|
|----------------------------------|-----------5-----5p4---5p4-2-0---|
|----------------------------------|---------------------------------|


  A5                  Gsus2/AA5               N.C.
|--5-x-x-x---5--x-x-x-3----|--5--x-x--x---5------------|
|--5-x-x-x---5--x-x-x-3----|--5--x-x--x---5------------|
|--x-x-x-x---x--x-x-x-x----|--x--x-x--x---x------------|
|--7-x-x-x---7--x-x-x-5----|--7--x-x--x---7-------7--0-|
|--0-0-0-0---0--0-0-0-0--0-|--0--0-0--0---0---0--------|
|--------------------------|---------------------------|
|
|  ~~~~~~~~~~~~~                      ~~~~~~~~~~~~~~~
|--------------------------|---------------------------|
|-10-------(10)-------8s10-|-10s13---10-(10)----(10)---|
|--------------------------|---------------------------|
|--------------------------|---------------------------|
|--------------------------|-------------------------0-|
|--------------------------|---------------------------|


                               9/8
|-----------------------------|-----------------------------------|
|-5p3---5-3-------------------|-----------------------------------|
|-----5-----5-4-2-----4-2-----|---2-------------------------------|
|-----------------5-2-----2h4-|-5---5-4-2---4p2-------2-----------|
|-----------------------------|-----------5-----5p(4)---5-4-2-0---|
|-----------------------------|-----------------------------------|
|
|-----------------------------|-----------------------------------|
|-5p3---5-3-------------------|-----------------------------------|
|-----5-----5-4-2-----4-2-----|---2-------------------------------|
|-----------------5-2-----2-4-|-5---5-4-2---4-2-------2-----------|
|-----------------------------|-----------5-----5p(4)---5p4-2-0---|
|-----------------------------|-----------------------------------|


  A5                  Gsus2/A  A5                    Gsus2/A
|--5-x-x-x---5--x-x-x---3----|---5--x-x-x---5--x-x-x-3---|
|--5-x-x-x---5--x-x-x---3----|---5--x-x-x---5--x-x-x-3---|
|--x-x-x-x---x--x-x-x---x----|---x--x-x-x---x--x-x-x-x---|
|--7-x-x-x---7--x-x-x---5----|---7--x-x-x---7--x-x-x-5---|
|--0-0-0-0---0--0-0-0---0--0-|---0--0-0-0---0--0-0-0-0-0-|
|----------------------------|---------------------------|
|
|----------------------------|---------------------------|
|-10-------(10)-------(10)---|-(10)-------(10)-----------|
|----------------------------|---------------------------|
|----------------------------|---------------------------|
|-----------------------x----|---------------------------|
|----------------------------|-----------------------3-5-|


  A5                  Gsus2/A A5        Dsus4D/A      Dsus4/A
|-5-x-x-x--5--x-x-x-x--3----|--5--x-x-x--5----5-------5---||
|-5-x-x-x--5--x-x-x-x--3----|--5--x-x-x--3----3-------3---||
|-x-x-x-x--x--x-x-x-x--x----|--x--x-x-x--x----x-------x---||
|-7-x-x-x--7--x-x-x-x--5----|--7--x-x-x--5----4-------5---||
|-0-0-0-0--0--0-0-0-0--0--0-|--0--0-0-0--0----0-------0---||
|---------------------------|-----------------------------||
|
|   ~~~~~~~~~~~~~~~~~~~~~~
|---------------------------|-----------------------------||
|---------------------------|-------------------------5-7-||
|---------------------------|-----------------------------||
|---------------------------|-----------------------------||
|-3-------------------------|-----------------------------||
|---5-----(5)---------(5)---|-(5)-------(5)--(5)-(x)\-----||


  A5                Gsus2/A5            N.C.  Gsus2/A
|-5-x-x-x-5-x-x-x-x-3---|-5---x-x-x-5-x-x-x-x-3---|
|-5-x-x-x-5-x-x-x-x-3---|-5---x-x-x-5-x-0-0-0-3---|
|-x-x-x-x-x-x-x-x-x-x---|-x---x-x-x-x-x-x-x-x-x---|
|-7-x-x-x-7-x-x-x-x-5---|-7---x-x-x-7-x-x-x-x-5---|
|-0-0-0-0-0-0-0-0-0-0-0-|-0---0-0-0-0-0-0-0-0-0-0-|
|-----------------------|-------------------------|
|
|         ~                         ~
|-----------------------|-------------------------|
|-8-7---5-----------5---|-------------------------|
|---------7-----------7-|-5h6---------------------|
|-----------------------|-----7-------------------|
|-----------------------|---------7-5---------5-7-|
|-----------------------|-------------------------|


  A5                Dsus4/A A5        Dsus4D/A    Dsus4/A
|-5-x-x-x-5-x-x-x-x-(5)---|--5--x-x-x--5----5-----(5)-|
|-5-x-x-x-5-x-x-x-x--x----|--5--x-x-x--3----3-----(3)-|
|-x-x-x-x-x-x-x-x-x--x----|--x--x-x-x--x----x---------|
|-7-x-x-x-7-x-x-x-x--5----|--7--x-x-x--5----4------5--|
|-0-0-0-0-0-0-0-0-0--0--0-|--0--0-0-0--0----0------0--|
|-------------------------|---------------------------|
|
|-------------------------|---------------------------|
|-------------------------|---------------------------|
|-------------------------|---------------------------|
|-------------------------|---------------------------|
|-4-----------------------|------------------------7--|
|---5---3-5---------(5)---|-(5)-------(5)--(5)-x\-----|


  A5                         Gsus2/A
                 PM-----------------|
|--5-----x--x-x--5-----------3--------|
|--5-----x--x-x--5-----------3--------|
|--x-----x--x-x--x-----------x--------|
|--7-----x--x-x--7--x----x---5--------|
|--0-----0--0-0--0--0----0---0----0---|
|-------------------------------------|
|
|-------------------------------------|
|-------------------------------------|
|-------------------------------------|
|-----7-(7)-----(7)--------7-9----7-9-|
|-(7)---------------7-9-10-----10-----|
|-------------------------------------|


  A5                          Gsus2/A
 PM---------------------------------|
|--5-------------5-------------3-----------|
|--5-------------5-------------3-----------|
|--x---x--x------x---x--x-x-x--x-----------|
|--7---x--x------7---x--x-x-x--5-----------|
|--0---0--0-0----0---0--0-0-0--0---0-------|
|------------------------------------------|
|
|------------------------------------------|
|------------------------------------------|
|----7-9-----------7-9-----------7-9----7--|
|-10-----10-7-9-10-----10-7-9-10-----10----|
|------------------------------------------|
|------------------------------------------|


  A5                                   Gsus2/A
   PM--------------------------------------------|
|--5------------------5-----------------3----------|
|--5------------------5-----------------3----------|
|--x------------------x-----------------x----------|
|--7------x--x--x-----7-----x--x--x-----5----------|
|--0------0--0--0-----0-----0--0--0-----0-----0----|
|--------------------------------------------------|
|
|--------------------------10-12-10----------------|
|---------8-10----10-12s13----------13-12-10-12-13-|
|-(7)-8-9------11----------------------------------|
|--------------------------------------------------|
|--------------------------------------------------|
|--------------------------------------------------|


  A5                Dsus4/A            D/A    Dsus4/A
 PM---------|
|--5-----------x-----5-----------------5-------5-----|
|--5-----------x-----3-----------------3-------3-----|
|--x-----------x-----x-----------------x-------x-----|
|--7-----x--x--x-----5-----------------4-------5-----|
|--0-----0--0--0-----0-----------------0-------0-----|
|----------------------------------------------------|
|
|                                   ~~~~
|-10-12-10-------------------------------------------|
|----------13-12-10h12-12b13r(12)-(12)---(12)-10-12--|
|----------------------------------------------------|
|----------------------------------------------------|
|------------------------------------------x---------|
|----------------------------------------------------|


  A5                        Gsus2/A A5                        Gsus2/A
|--5--x-x-----5----x-x--x-x--3----|--5--x-x--x--5-----x-x-x-x-3-----------|
|--5--x-x-----5----x-x--x-x--3----|--5--x-x--x--5-----x-x-x-x-3-----------|
|--x--x-x-----x----x-x--x-x--x----|--x--x-x--x--x-----x-x-x-x-x-----------|
|--7--x-x-----7----x-x--x-x--5----|--7--x-x--x--7-----x-x-x-x-5-----------|
|--0--0-0--0--0----0-0--0-0--0--0-|--0--0-0--0--0-----0-0-0-0-0-0---------|
|---------------------------------|---------------------------------------|
|
|----10---12----10----------------|---------------------------------------|
|-13---------13--------12---13-10-|-12------10-------10-------------------|
|---------------------------------|----12------10h11------x---7-5b5.5r(5)-|
|---------------------------------|---------------------------------------|
|---------------------------------|---------------------------------------|
|---------------------------------|---------------------------------------|


  A5                  Gsus2/A5           Dsus4/D/A    Dsus4/A
|-5-x-x-x---5-x-x-x-x-3---|-5---x-x--x----5-----5-----5-|
|-5-x-x-x---5-x-x-x-x-3---|-5---x-x--x----3-----3-----3-|
|-x-x-x-x---x-x-x-x-x-x---|-x---x-x--x----x-----x-----x-|
|-7-x-x-x---7-x-x-x-x-5---|-7---x-x--x----5-----4-----5-|
|-0-0-0-0---0-0-0-0-0-0-0-|-0---0-0--0----0-----0-----0-|
|-------------------------|-----------------------------|
|
|-------------------------|-----------------------------|
|---5---------------------|-----------------------------|
|-7-----7s9-5-7-------5-7-|-7s9-------------------------|
|-----------------7-------|-----7---10s9-(9)-7-(7)s14---|
|-------------------------|-----------------------------|
|-------------------------|-----------------------------|


  A5                                  Gsus2/A
               PM
|--5-----x--x--------5-----x--x--x--x--3----------|
|--5-----x--x--------5-----x--x--x--x--3----------|
|--x-----x--x--------x-----x--x--x--x--x----------|
|--7-----x--x--x-----7-----x--x--x--x--5----------|
|--0-----0--0--0-----0-----0--0--0--0--0-----0----|
|-------------------------------------------------|
|
|----------10-12-10----------------10-12-10-------|
|-10-12-13----------13-12-10-12-13----------13-12-|
|-------------------------------------------------|
|-------------------------------------------------|
|-------------------------------------------------|
|-------------------------------------------------|


  A5                                     Gsus2/A
|--5-----x--x--x-----5-----x--x--x--x-----3-------x-x--|
|--5-----x--x--x-----5-----x--x--x--x-----3-------x-x--|
|--x-----x--x--x-----x-----x--x--x--x-----x-------x-x--|
|--7-----x--x--x-----7-----x--x--x--x-----5-------x-x--|
|--0-----0--0--0-----0-----0--0--0--0-----0-------0-0--|
|------------------------------------------------------|
|
|----------10-12-10----------------10-10h12-(12)\------|
|-10-12-13----------13-12-10-12-13---------------------|
|-------------------------------------------------0-0--|
|-------------------------------------------------xsx--|
|------------------------------------------------------|
|------------------------------------------------------|


  A5                                                      Gsus2/A
|--5-------x----x--------------5--------x----x-------------3------------|
|--5-------x----x--------------5--------x----x-------------3------------|
|--x-------x----x--------------x--------x----x-------------x------------|
|--7-------x----x--------------7--------x----x-------------5------------|
|--0-------0----0----0---------0--------0----0----0--------0-------0----|
|-----------------------------------------------------------------------|
|
|-17-16-16---16---16---16-16-(16)-16-16---16---16---16-16-16-16-16---16-|
|-----------------------------------------------------------------------|
|-----------------------------------------------------------------------|
|-----------------------------------------------------------------------|
|-----------------------------------------------------------------------|
|-----------------------------------------------------------------------|


  A5              Dsus4/A    D/A     Dsus4/A
|--5---x--x--------5---------5-------5---|
|--5---x--x--------3---------3-------3---|
|--x---x--x--------x---------x-------x---|
|--7---x--x--------5---------4-------5---|
|--0---0--0--0-----0---------0-------0---|
|----------------------------------------|
|
|-16\-12-12-12s10-10-10-10s8-8-8-8s7-7-7-|
|----------------------------------------|
|----------------------------------------|
|----------------------------------------|
|----------------------------------------|
|----------------------------------------|


  A5  N.C.      A5      N.C.  Gsus2/A A5                      Gsus2/A
|-5---(x)-------5---x-x--------3----|-5---x-x-x---5---x-x-x-x-3-------|
|-5---(x)-------5---x-x--------3----|-5---x-x-x---5---x-x-x-x-3-------|
|-x----0--------x---x-x--------x----|-x---x-x-x---x---x-x-x-x-x-------|
|-7---(x)-------7---x-x--------5----|-7---x-x-x---7---x-x-x-x-5-------|
|-0---------0---0---0-0--------0--0-|-0---0-0-0---0---0-0-0-0-0---0---|
|-----------------------0-(3)-------|---------------------------------|
|
|                       ~~~~~~~~~~
|-7s5--5--5-5s3-3-3-3h5-------------|-------3-5-3-----------3-5-3-----|
|-----------------------5-----(5)---|-3-4-5-------5-4-3-4-5-------5-4-|
|-----------------------------------|---------------------------------|
|-----------------------------------|---------------------------------|
|-----------------------------------|---------------------------------|
|-----------------------------------|---------------------------------|


  A5                    Gsus2/A   A5          DsusD/A
|-5-x-x-x---5---x-x-x-x-3-------|-5---x-x-x---5----5-------||
|-5-x-x-x---5---x-x-x-x-3-------|-5---x-x-x---3----3-------||
|-x-x-x-x---x---x-x-x-x-x-------|-x---x-x-x---x----x-------||
|-7-x-x-x---7---x-x-x-x-5-------|-7---x-x-x---5----4-------||
|-0-0-0-0---0---0-0-0-0-0---0---|-0---0-0-0---0----0-----0-||
|-------------------------------|--------------------------||
|
|-------------------------------|--------------------------||
|-3-3-4-3p1---3-1---------------|--------------------------||
|-----------2-----2p0---2p0---0-|--------------------------||
|---------------------2-----2---|-1p0---0------------------||
|-------------------------------|-----3---3p2-2-0-(0)-7\---||
|-------------------------------|--------------------------||


  N.C.
|-----------------------------|-----------------------------------|
|-5p3---5-3-------------------|-----------------------------------|
|-----5-----5-4-2-----4-2-----|---2-------------------------------|
|-----------------5-2-----2-4-|-5---5-4-2---4-2-----2-------------|
|-----------------------------|-----------5-----5-4---5-4-2-0-----|
|-----------------------------|-----------------------------------|
|
|-----------------------------|-----------------------------------|
|-5p3---5-3-------------------|-------------------------------10--|
|-----5-----5-4-2-----4-2-----|---2-------------------------------|
|-----------------5-2-----2-4-|-5---5-4-2---4-2-----2-------------|
|-----------------------------|-----------5-----5-4---5-4-2-0-----|
|-----------------------------|-----------------------------------|


  A5                N.Gsus2N.C.A5
|---5--x-----5--x-x-----3----|---5--x-x-x---5-------5----|
|---5--x-----5--x-x-----3----|---5--x-x-x---5-------5----|
|---x--x-----x--x-x-----x----|---x--x-x-x---x-------x----|
|---7--x-x---7--x-x-----5----|---7--x-x-x---7---7---7----|
|---0--0-0---0--0-0-0---0--0-|---0--0-0-0---0---0---0--0-|
|-------------------0------0-|---------------------------|
|
|----------------------------|---------------------------|
|-(10)-----(10)-------(10)---|-(10)-------(10)----(10)---|
|----------------------------|---------------------------|
|----------------------------|---------------------------|
|----------------------------|---------------------------|
|----------------------------|---------------------------|


  N.C.
|-----------------------------|---------------------------------|
|-5p3---5-3-------------------|---------------------------------|
|-----5-----5-4-2-----4-2-----|---2-----------------------------|
|-----------------5-2-----2-4-|-5---5-4-2---4-2-----2-----------|
|-----------------------------|-----------5-----5-4---5-4-2-0---|
|-----------------------------|---------------------------------|
|
|-----------------------------|---------------------------------|
|-5p3---5-3-------------------|---------------------------------|
|-----5-----5-4-2-----4-2-----|---2-----------------------------|
|-----------------5-2-----2-4-|-5---5p4-2---4-2-----2-----------|
|-----------------------------|-----------5-----5p4---5p4-2-0---|
|-----------------------------|---------------------------------|


  A5                  Gsus2/A  A5                      Gsus2/A
|--5-x-x-x---5--x-x-x---3----|---5--x-x-x---5--x-x-x-x-3---|
|--5-x-x-x---5--x-x-x---3----|---5--x-x-x---5--x-x-x-x-3---|
|--x-x-x-x---x--x-x-x---x----|---x--x-x-x---x--x-x-x-x-x---|
|--7-x-x-x---7--x-x-x---5----|---7--x-x-x---7--x-x-x-x-5---|
|--0-0-0-0---0--0-0-0---0--0-|---0--0-0-0---0--0-0-0-0-0-0-|
|----------------------------|-----------------------------|
|
|----------------------------|-----------------------------|
|-10-------(10)-------(10)---|-(10)-------(10)-------------|
|----------------------------|-----------------------------|
|----------------------------|-----------------------------|
|----------------------------|-------------------------0-2-|
|----------------------------|-----------------------------|


  A5                Gsus2/A A5  N.C.  Dsus4D/A Dsus4/A
|-5-x-x-x-5-x-x-x-x--3----|--5--x-x-x--5---5---(5)---|
|-5-x-x-x-5-x-x-x-x--3----|--5--0-0-0--3---3---(3)---|
|-x-x-x-x-x-x-x-x-x--x----|--x--x-x-x--x---x---------|
|-7-x-x-x-7-x-x-x-x--5----|--7--x-x-x--5---4----5----|
|-0-0-0-0-0-0-0-0-0--0--0-|--0--0-0-0--0---0----0----|
|-------------------------|--------------------------|
|
|         ~~~~~~~~~~~~~~~~~~~~~~
|-------------------------|--------------------------|
|-------------------------|---------------------5--7-|
|-------------------------|--------------------------|
|-------------------------|--------------------------|
|-3-5s==7-----------------|----------------x-x-------|
|---------5---------(5)---|-(5)-------(5)------------|


  A5              Gsus2/A5                Gsus2/A
|-5-x-x-x-5-x-x-x-3---|-5---x-x-x-5---x-x-3---|
|-5-x-x-x-5-x-x-x-3---|-5---x-x-x-5---x-x-3---|
|-x-x-x-x-x-x-x-x-x---|-x---x-x-x-x---x-x-x---|
|-7-x-x-x-7-x-x-x-5---|-7---x-x-x-7---x-x-5---|
|-0-0-0-0-0-0-0-0-0-0-|-0---0-0-0-0-0-0-0-0-0-|
|---------------------|-----------------------|
|
|         ~                       ~
|---------------------|-----------------------|
|-8-7---5---------5---|-----------------------|
|---------7---------7-|-5h6-------------------|
|---------------------|-----7-----------------|
|---------------------|---------7-5-------5-7-|
|---------------------|-----------------------|


  A5                Gsus2/A A5        Dsus4D/A  Dsus4/A
|-5-x-x-x-5-x-x-x-x--3----|--5--x-x-x--5----5---5-|
|-5-x-x-x-5-x-x-x-x--3----|--5--x-x-x--3----3---3-|
|-x-x-x-x-x-x-x-x-x--x----|--x--x-x-x--x----x---x-|
|-7-x-x-x-7-x-x-x-x--5----|--7--x-x-x--5----4---5-|
|-0-0-0-0-0-0-0-0-0--0--0-|--0--0-0-0--0----0---0-|
|-------------------------|-----------------------|
|
|         ~~~~~~~~~~~~~~~~~~~~~~~~~~~~~~~~
|-------------------------|-----------------------|
|-------------------------|-----------------------|
|-------------------------|-----------------------|
|-------------------------|-----------------------|
|-4-0---------------------|---------------------x-|
|-------3-5---------(5)---|-(5)-------(5)--(5)----|


  A5                            Gsus2/A
|-5----x--x-x----5----x--x-x--x-3---------|
|-5----x--x-x----5----x--x-x--x-3---------|
|-x----x--x-x----x----x--x-x--x-x---------|
|-7----x--x-x----7----x--x-x--x-5---------|
|-0----0--0-0----0----0--0-0--0-0----0----|
|-----------------------------------------|
|
|-----------------------------------------|
|------9-10-9---------9-10-9---------9-10-|
|-9-10--------10-9-10--------10-9-10------|
|-----------------------------------------|
|-----------------------------------------|
|-----------------------------------------|


  A5                    N.C.    Gsus2/A
|-5----x--x-x----5----x--x-x--x-3---------|
|-5----x--x-x----5----x--0-0--0-3---------|
|-x----x--x-x----x----x--x-x--x-x---------|
|-7----x--x-x----7----x--x-x--x-5---------|
|-0----0--0-0----0----0--0-0--0-0----0----|
|-----------------------------------------|
|
|-----------------------------------------|
|-9---------9-10-9---------9-10-9---------|
|---10-9-10--------10-9-10--------10-9-10-|
|-----------------------------------------|
|-----------------------------------------|
|-----------------------------------------|


  A5                     Gsus2/A A5         Dsus4/D/A   Dsus4/A
|-5--x-x--x--5--x-x--x-x--3----|--5--x-x--x--5------5---(5)-|
|-5--x-x--x--5--x-x--x-x--3----|--5--x-x--x--3------3---(3)-|
|-x--x-x--x--x--x-x--x-x--x----|--x--x-x--x--x------x-------|
|-7--x-x--x--7--x-x--x-x--5----|--7--x-x--x--5------4----5--|
|-0--0-0--0--0--0-0--0-0--0--0-|--0--0-0--0--0------0----0--|
|------------------------------|----------------------------|
|
|                                               ~~~~~~~
|---------------------------12-|-10------10s12-10-(10)------|
|-9-10---12-13-10---12S==13----|----13----------------------|
|------------------------------|----------------------------|
|------------------------------|----------------------------|
|------------------------------|----------------------------|
|------------------------------|----------------------------|


  A5                             Gsus2/A A5                    Gsus2/A
|-5----x---x-x---5---x-x---x---x-3-----|-5---x-x-x---5-x-x-x-x-3-----|
|-5----x---x-x---5---x-x---x---x-3-----|-5---x-x-x---5-x-x-x-x-3-----|
|-x----x---x-x---x---x-x---x---x-x-----|-x---x-x-x---x-x-x-x-x-x-----|
|-7----x---x-x---7---x-x---x---x-5-----|-7---x-x-x---7-x-x-x-x-5-----|
|-0----0---0-0---0---0-0---0---0-0---0-|-0---0-0-0---0-0-0-0-0-0---0-|
|--------------------------------------|-----------------------------|
|
|-8-10---8---7-8---7-5---7---5---3-5-3-|-2-3-2-----------------------|
|--------------------------------------|---------3-5-3-1-3-1---0-1-0-|
|--------------------------------------|-----------------------------|
|--------------------------------------|-----------------------------|
|--------------------x-----------x-----|-x-------x-----x-------x-----|
|--------------------------------------|-----------------------------|


  A5                  Gsus2/A5      DsusD/A    N.C.
|-5-x-x-x-5--x--x-x-x-3---|-5-x-x-x-5----5-------|
|-5-x-x-x-5--x--x-x-x-3---|-5-x-x-x-3----3-------|
|-x-x-x-x-x--x--x-x-x-x---|-x-x-x-x-x----x-------|
|-7-x-x-x-7--x--x-x-x-5---|-7-x-x-x-5----4-------|
|-0-0-0-0-0--0--0-0-0-0-0-|-0-0-0-0-0----0-----0-|
|-------------------------|----------------------|
|
| ~
|-------------------------|----------------------|
|-------------------------|----------------------|
|-2-----0-2-------0-------|----------------------|
|------------2--------2---|-0--------------------|
|-x-----x---(x)---------3-|---2---3-2-0-(0)-7\---|
|-------------------------|----------------------|


|-------------------------------|
|-5p3---5-3---------------------|
|-----5-----5---4-2-----4-2-----|
|-------------------5-2-----2-4-|
|-------------------------------|
|-------------------------------|
|
|-------------------------------|
|-5p3---5-3---------------------|
|-----5-----5-4---2-----4-2-----|
|-------------------5-2-----2h4-|
|-------------------------------|
|-------------------------------|


|----------------------------------|--5--(5)\------*|
|----------------------------------|--5--(5)\------*|
|---2------------------------------|---------------*|
|-5---5-4-2---4-2-------2----------|---------------*|
|-----------5-----5--4----5-4-2-0--|---------------*|
|----------------------------------|---------------*|
|
|----------------------------------|---------------*|
|----------------------------------|-10------------*|
|---2------------------------------|---------------*|
|-5---5-4-2---4-2-------2----------|---------------*|
|-----------5-----5-(5)---5p4-2-0--|---------------*|
|----------------------------------|---------------*|



Tablature Legend
----------------
 h   - hammer-on
 p   - pull-off
 b   - bend
 pb  - pre-bend
 r   - bend release (if no number after the r, then release immediately)
 /\  - slide into or out of (from/to "nowhere")
 s   - legato slide
 S   - shift slide
 - natural harmonic
[n]  - artificial harmonic
n(n) - tapped harmonic
 ~   - vibrato
 tr  - trill
 T   - tap
 TP  - trem. picking
 PM  - palm muting
\n/  - tremolo bar dip; n = amount to dip
 \n  - tremolo bar down
 n/  - tremolo bar up
/n\  - tremolo bar inverted dip
 =   - hold bend; also acts as connecting device for hammers/pulls
 <> - volume swell (louder/softer)
 x   - on rhythm slash represents muted slash
 o   - on rhythm slash represents single note slash

Misc Legend
-----------
 |  - bar
||  - double bar
||o - repeat start
o|| - repeat end
*|  - double bar (ending)
 :  - bar (freetime)
 $  - Segno
 &  - Coda
Tempo markers -  = BPM(8/16=s8/s16), where s8 = swing 8ths, s16 = swing 16ths





Comments


Popular Joe Bonamassa tabs & chords
You Upset Me Baby 2 Bass Tabs
Asking Around For You Chords
When She Dances Chords
Sloe Gin Drum Tabs
Had To Cry Today Tabs
Steppin Outrice Pudding Tabs
Story Of A Quarryman 2 Tabs
The Ballad Of John Henry 1 Tabs
Woke Up Dreamin Tabs
If Heartaches Were Nickels Ukulele


Song lyrics



↑ Back to top | Tablatures and chords are parodies/interpretations of the original songs. You may use it for private study, scholarship, research or language learning purposes only
© 2014 AZChords.com Contact us | Privacy policy | DMCA | Add/correct tabs | Request tabs | Top 50 tabs