» » »

Joe Bonamassa, Django Tabs (ver.2)

Artists:  A B C D E F G H I J K L M N O P Q R S T U V W X Y Z # 

Django Tabs (ver.2)

Joe Bonamassa Tabs
 Rating:
4.6/5 (10 votes)
Django lessons Tabs too difficult? Try these video lessons and learn fast
                -------------------------------------------------------------------------------
                            Django - Joe Bonamassa
-------------------------------------------------------------------------------

I whipped this out pretty quick, but feel good about it.

Any praises/suggestions are appreciated.

Tuning: EADGBE

PART A
e|-------------(7)-----------------------------------------------------------|
B|----8b9-----9-----15--12-----12--10p9--14-----8--b8------------------------|
G|--------9--9---------------13---------------9--------9---------------------|
D|--9-------9--------------(14)--------------9-------------------------------|
A|---------------------------------------------------------------------------|
E|---------------------------------------------------------------------------|
REPEAT PART A, except pick the high G note (15) a few extra times.

PART B
e|----------------------------------------9-----------13---------------------|
B|-----9h11p9p8--9-11-----------7/9/11h12----------14------------------------|
G|-9-8------------------------8--------------11/13---------------------------|
D|----------------------6-8-9------------------------------------------------|
A|---------------------6-----------------------------------------------------|
E|---------------------------------------------------------------------------|

means note was pre-dropped with the whammy bar...
e|---------------------------------19--------19------19-19-------------------|
B|---12--12h14p12p11--12--<14---19---19-17----17-16----16--------------------|
G|-11------------------------------------------------------------------------|
D|---------------------------------------------------------------------------|
A|---------------------------------------------------------------------------|
E|---------------------------------------------------------------------------|

REPEAT PART A again, then band comes in: Chords: E/////G//E// repeat...
                                           Then: D#//G#//C#//B//F#m//B
...the rest just repeats itself...

The end lick:
                repeat into lick, then some natural harmonics ~5th fret
e|---------------------------------------------------------------------------|
B|--<5-h7p5\2p0--------------------------------------------------------------|
G|---------------------------------------------------------------------------|
D|---------------------------------------------------------------------------|
A|---------------------------------------------------------------------------|
E|---------------------------------------------------------------------------|


| /  slide up
| \  slide down
| h  hammer-on
| p  pull-off
| ~  vibrato
| +  harmonic
| x  Mute note
===============================================================================
            
Submit corrections

comments powered by Disqus
↑ Back to top | Joe Bonamassa Tabs for Django. Lyrics for acoustic guitar and electric guitar. Tablatures and chords are parodies/interpretations of the original songs. You may use it for private study, scholarship, research or language learning purposes only