>
 >
Django

Django Guitar Tabs

Joe Bonamassa - Django chords, tabs, tablatures, lyrics

Guitar lessons | Add/correct | Request | Top 50 tabs Artists:  A B C D E F G H I J K L M N O P Q R S T U V W X Y Z 0-9

Django Guitar Tabs – Joe Bonamassa

CD, Sheet music, Poster

Do you like Django? Share with your friends now
TabsTabs v2
------------------------------------------------------------------------------
           Joe Bonamassa - Django (Live From The Royal Albert Hall)
------------------------------------------------------------------------------
Live version of Django, the first song on the Live From The Royal Albert Hall
DVD. I saw the other tab of this song and it's very good, but he played some
extra cool little things on this DVD.


e|---------------------------------------------------------------------------|
B|---8b9-r8--------12-15-15-15-15b17---15-15-12~-------12-12-12--12-10-9-----|
G|----------9---13-----------------------------------13----------------------|
D|-9-----------------------------------------------14------------------------|
A|---------------------------------------------------------------------------|
E|---------------------------------------------------------------------------|

e|---------------------------------------------------------------------------|
B|-12h14-14~-----8--b9r8b10~r8--------8b9r8b9~-r8-----------12-15-15-15------|
G|--------------9--------------9~-----------------9------13------------------|
D|-------------9--------------------9-----------------14---------------------|
A|---------------------------------------------------------------------------|
E|---------------------------------------------------------------------------|

e|---------------------------------------------------------------------------|
B|-15b17r15b19r15-15-12~-----9-12-12~--12-10-9--12h14-14~----8--b9r8b10~r8---|
G|--------------------------9-------------------------------9--------------9~|
D|-------------------------9-------------------------------9-----------------|
A|---------------------------------------------------------------------------|
E|---------------------------------------------------------------------------|

Drum thing, then...

e|---------------------------------------------------------------------------|
B|---8b9~r8-----------12-15-15-15-15b17---15-15-12~--12-------12-12---12-----|
G|----------9------13--------------------------------------13----------------|
D|-9------------14-----------------------------------------------------------|
A|---------------------------------------------------------------------------|
E|---------------------------------------------------------------------------|

e|--------------------------------------------------7------------------------|
B|-12-10-9--12/14~--14~----8~--8b10~r8--------8b9rb9~---r8-----------12-15---|
G|-------------------------------------9~------------------9------13---------|
D|-----------------------9------------------9------------------14------------|
A|---------------------------------------------------------------------------|
E|---------------------------------------------------------------------------|

e|-------------------14b16~-16r14--------------------------------------------|
B|-15-15-15b17-15-12-------------------12~--12~--12-10-9--12/14~--14~--------|
G|----------------------------------13---------------------------------------|
D|---------------------------------------------------------------------------|
A|---------------------------------------------------------------------------|
E|---------------------------------------------------------------------------|

e|-----------------------------------------------------------------------9---|
B|---8~-8b10~r8--------------9--11p9\8-9-11~--11~--------------7/9-11-12-----|
G|--------------9~--9~--9-8----------------------------------8---------------|
D|-9---------------------------------------------------6-8-9-----------------|
A|---------------------------------------------------6-----------------------|
E|---------------------------------------------------------------------------|

e|----------13~-13h14p13~----------------------------------14~--14~----------|
B|-------14--------------------12-12~--12~--14p12\11-12-14------------19p17--|
G|-11/13--------------------11-----------------------------------------------|
D|---------------------------------------------------------------------------|
A|---------------------------------------------------------------------------|
E|---------------------------------------------------------------------------|

e|-----19----------19----------19--------------------------------------------|
B|-19------19--17------17--16------16-14~------8b9~r8------------12-15-15-15-|
G|----------------------------------------------------9~------13-------------|
D|-------------------------------------------9-------------14----------------|
A|---------------------------------------------------------------------------|
E|---------------------------------------------------------------------------|

e|----------------14b16~-16r14-----------------------------------------------|
B|-15b17-17r15-12-------------------12~--12~--12-10-9--12/14~-----8~-8b10~r8-|
G|-------------------------------13------------------------------------------|
D|--------------------------------------------------------------9------------|
A|---------------------------------------------------------------------------|
E|---------------------------------------------------------------------------|

e|---------------------------------------------------------------------------|
B|---------------------------------------------------------------------------|
G|---------------------------------------------------------------------------|
D|---------------------------------------------------------------------------|
A|---------------------------------------------------------------------------|
E|-0-------------------------------------------------------------------------|
     Tune your guitar down from here.   


************************************

| /   slide up
| \   slide down
| h   hammer-on
| p   pull-off
| ~   vibrato
| +   harmonic
| x   Mute note
| b   Bend
| pb  Pre-bend
| br  Bend release
| pbr Pre-bend release
| brb Bend release bend

************************************





Comments


Popular Joe Bonamassa tabs & chords
You Upset Me Baby 2 Bass Tabs
A Place In My Heart Chords
Bird On A Wire 1 Chords
Driving Towards The Daylight Chords
Richmond 1 Chords
Blue And Evil 1 Tabs
Jelly Roll Intro Tabs
The Last Matador Of Bayonne Tabs
Woke Up Dreamin Tabs
Richmond Ukulele


Song lyrics



↑ Back to top | Tablatures and chords are parodies/interpretations of the original songs. You may use it for private study, scholarship, research or language learning purposes only
© 2014 AZChords.com Contact us | Privacy policy | DMCA | Add/correct tabs | Request tabs | Top 50 tabs