» » »

Joe Bonamassa, Ball Peen Hammer Tabs (ver.2)

Artists:  A B C D E F G H I J K L M N O P Q R S T U V W X Y Z # 

Ball Peen Hammer Tabs (ver.2)

Joe Bonamassa Tabs
 Rating:
4.4/5 (7 votes)
Ball Peen Hammer lessons Tabs too difficult? Try these video lessons and learn fast
1
                -------------------------------------------------------------------------------
-------------------------------------------------------------------------------

Tuning: STANDARD
Please Note: Capo on first fret

INTRO
e|-----0---0---0---0-|
B|----0---0---0---0--|
G|-------4---4---4---|
D|--2---0------------| x4
A|----------4--------|
E|--------------3----|

Verse
e|-----0---0---0---0-|
B|----0---0---0---0--|
G|-------4---4---4---|
D|--2---0------------| x8
A|----------4--------|
E|--------------3----|


e|-----0---0---0---0-|
B|----0---0---0---0--|
G|-------4---4---4---|
D|--2---0------------| x2
A|----------3---0----|
E|-------------------|

e|-----0-------0-------0---0---0---0---0---0---0---0-|
B|----0-0-----0-0-----0---0---0---0---0---0---0---0--|
G|-------4-------4-------4---4---4-------4---4---4---|
D|------------------2---0-----------2---0------------|
A|--0-----------------------4---------------4--------|
E|----------3~~~~~~p0-----------3---------------3----|


Verse 2
e|-----0---0---0---0-|
B|----0---0---0---0--|
G|-------4---4---4---|
D|--2---0------------| x8
A|----------4--------|
E|--------------3----|

e|-----0---0---0---0-|
B|----0---0---0---0--|
G|-------4---4---4---|
D|--2---0------------| x2
A|----------3---0----|
E|-------------------|

e|-----0-------0-------0---0---0---0|
B|----0-0-----0-0-----0---0---0---0-|
G|-------4-------4-------4---4---4--|
D|------------------2---0-----------|
A|--0-----------------------3---0---|
E|----------3~~~~~~p0---------------|


e|-----0---0---0---0-|
B|----0---0---0---0--|
G|-------4---4---4---|
D|--2---0------------| x2
A|----------3---0----|
E|-------------------|

e|-----0-------0-------0|
B|----0-0-----0-0-----0-|
G|-------4-------4------|
D|------------------2---|
A|--0-------------------|
E|----------3~~~~~~p0---|


e|-----0---0---0---0-|
B|----0---0---0---0--|
G|-------4---4---4---|
D|--2---0------------| x2
A|----------4--------|
E|--------------3----|


e|---2----2--0--0----0---0---0---0---0-|
B|--0---0---0-------0---0---0---0---0--|
G|-------------------------------------|
D|2----------------5---4---0-----------| x10
A|-----------------------------4-------|
E|0--------------------------------3b-p|

e|----0---0---0---0---0---0----0----0----0--|
B|---0---0---0---0---0---0----0----0----0---|
G|------------------------------------------|
D|--5---4---7---6--10---9---12---11---14----|
A|------------------------------------------|
E|------------------------------------------|

e|-------0----0------|
B|-----0-----0----0--|
G|----4--------------|
D|--2------2----0----| x4
A|-------------------|
E|-------------------|

Verse
e|-----0---0---0---0-|
B|----0---0---0---0--|
G|-------4---4---4---|
D|--2---0------------| x8
A|----------4--------|
E|--------------3----|


e|-----0---0---0---0-|
B|----0---0---0---0--|
G|-------4---4---4---|
D|--2---0------------| x2
A|----------3---0----|
E|-------------------|

e|-----0-------0-------0---0---0---0|
B|----0-0-----0-0-----0---0---0---0-|
G|-------4-------4-------4---4---4--|
D|------------------2---0-----------|
A|--0-----------------------3---0---|
E|----------3~~~~~~p0---------------|

e|-----0---0---0---0-|
B|----0---0---0---0--|
G|-------4---4---4---|
D|--2---0------------| x2
A|----------3---0----|
E|-------------------|

e|-----0-------0-------0---0---0---0|
B|----0-0-----0-0-----0---0---0---0-|
G|-------4-------4-------4---4---4--|
D|------------------2---0-----------|
A|--0-----------------------3---0---|
E|----------3~~~~~~p0---------------|

e|-----0---0---0---0-|
B|----0---0---0---0--|
G|-------4---4---4---|
D|--2---0------------| x2
A|----------3---0----|
E|-------------------|

e|-----0-------0-------0---0---0---0|
B|----0-0-----0-0-----0---0---0---0-|
G|-------4-------4-------4---4---4--|
D|------------------2---0-----------|
A|--0-----------------------3---0---|
E|----------3~~~~~~p0---------------|

e|-----0---0---0---0-|
B|----0---0---0---0--|
G|-------4---4---4---|
D|--2---0------------| x2
A|----------3---0----|
E|-------------------|

e|-----0-------0-------0---0---0---0|
B|----0-0-----0-0-----0---0---0---0-|
G|-------4-------4-------4---4---4--|
D|------------------2---0-----------|
A|--0-----------------------3---0---|
E|----------3~~~~~~p0---------------|

e|-----0---0---0---0-|
B|----0---0---0---0--|
G|-------4---4---4---|
D|--2---0------------| x2
A|----------3---0----|
E|-------------------|

e|-----0-------0-------0---0---0---0|
B|----0-0-----0-0-----0---0---0---0-|
G|-------4-------4-------4---4---4--|
D|------------------2---0-----------|
A|--0-----------------------3---0---|
E|----------3~~~~~~p0---------------|

e|-----0---0---0---0-|
B|----0---0---0---0--|
G|-------4---4---4---|
D|--2---0------------| x2
A|----------3---0----|
E|-------------------|

e|-----0-------0-----|
B|----0-0-----0-0----|
G|-------4-------4---|
D|------------------2|
A|--0----------------|
E|----------3~~~~~~p0|

e|-------0----0------|
B|-----0-----0----0--|
G|----4--------------|
D|--2------2----0----| x4
A|-------------------|
E|-------------------|

e|--3------3------3--3------3------3|
B|--3--3-----3-------3--3-----3-----|
G|--0----0-----0-----0----0-----0---|
D|--5------------5---5------------5-|
A|----------------------------------|
E|----------------------------------|

Slows down here

e|--3------3------3--3------3--------4|
B|--3--3-----3-------3--3-----3------0|
G|--0----0-----0-----0----0----------1|
D|--5------------5---5----------0-2--2|
A|-----------------------------------2|
E|-----------------------------------0|


| /  slide up
| \  slide down
| h  hammer-on
| p  pull-off
| ~  hold note
| +  harmonic
| x  Mute note
===============================================================================
            
Submit corrections

comments powered by Disqus
↑ Back to top | Joe Bonamassa Tabs for Ball Peen Hammer. Lyrics for acoustic guitar and electric guitar. 1 Tablatures and chords are parodies/interpretations of the original songs. You may use it for private study, scholarship, research or language learning purposes only