» » »

Joe Bonamassa, Another Kind Of Love Tabs (ver.1)

Artists:  A B C D E F G H I J K L M N O P Q R S T U V W X Y Z # 

Another Kind Of Love Tabs (ver.1)

Joe Bonamassa Tabs
Rating:
4/5 (1 vote)
Another Kind Of Love lessons Tabs too difficult? Try these video lessons and learn fast
                (Intro)
-------------------------------------------------------------------------------
                ANOTHER KIND OF LOVE - JOE BONAMASSA
-------------------------------------------------------------------------------

Tuning: Standard

e|-------------------------|------------------------|-------------------------|
B|-------------------------|------------------------|-------------------------|
G|-------------------------|------------------------|-------------------------|
D|-----5-5-----3-----3-----|----5-5-----3-----3-----|-----5-5-----3-----3-----|
A|---------3h5---3h5---3---|--------3h5---3h5---3---|---------3h5---3h5---3---|
E|-3-3-------------------6-|-3-3------------------6-|-3-3-------------------6-|

e|-------------------------|------------------------------|-------------------|
B|-------------------------|------------------------------|-------------------|
G|-------------------------|------------------------------|-------------------|
D|-----5-5-----3-----3-----|-----10-10------8------8------|-----10-10------8--|
A|---------3h5---3h5---3---|-----------8h10---8h10---8----|-----------8h10----|
E|-3-3-------------------6-|-8-8-----------------------11-|-8-8---------------|

e|-------------|-------------------------|-------------------------|----------|
B|-------------|-------------------------|-------------------------|----------|
G|-------------|-------------------------|-------------------------|-----7-7--|
D|------8------|-----5-5-----3-----3-----|-----5-5-----3-----3-----|----------|
A|-8h10---8----|---------3h5---3h5---3---|---------3h5---3h5---3---|-5-5------|
E|----------11-|-3-3-------------------6-|-3-3-------------------6-|----------|

e|-----------------|-------------------------|-------------------------|------|
B|-----------------|-------------------------|-------------------------|------|
G|-----5-----5-----|-----5-5-----5-----5-----|-------------------------|------|
D|-5h7---5h7---5---|---------3h5---3h5---5---|-----5-5-----3-----3-----|-12-10|
A|---------------8-|-3-3-------------------6-|---------3h5---3h5---3---|-x--X-|
E|-----------------|-------------------------|-3-3-------------------6-|-10-10|

e|---------------|
B|---------------|
G|---------------|
D|-10-10-8-8-7-7-| I think it pretty much repeats this with some stunning solos.
A|-x--x--x-x-x-x-|
E|-8--8--6-6-5-5-|


Could not find a tab for this riff so I thought I would have a go myself.  Feel
free to let me know if it is OK.. There are obviously overdubs on the studio 
version.   

************************************

| /   slide up
| \   slide down
| h   hammer-on
| p   pull-off
| ~   vibrato
| +   harmonic
| x   Mute note
| b   Bend
| pb  Pre-bend
| br  Bend release
| pbr Pre-bend release
| brb Bend release bend

************************************
            

comments powered by Disqus
↑ Back to top | Joe Bonamassa Tabs for Another Kind Of Love. Lyrics for acoustic guitar and electric guitar. Tablatures and chords are parodies/interpretations of the original songs. You may use it for private study, scholarship, research or language learning purposes only