» » »

Joao Gilberto, Besame Mucho Tabs (ver.1)

Artists:  A B C D E F G H I J K L M N O P Q R S T U V W X Y Z # 

Besame Mucho Tabs (ver.1)

Joao Gilberto Tabs
Rating:
4/5 (1 vote)
Hard to play? Try these video lessons and learn fast.
                                                 Besame Mucho                                   


                                                                   Joao Gilberto
Besame Mucho Tabs by Joao Gilberto



      Q    Q    Q    Q       Q    Q    Q    Q       Q    Q    Q    Q     
E||--12----7---------7----|-------0----3----2----|--0----2--------------|
B||---0---------8---------|--8---------2---------|-------4----5----4----|
G||---0-------------------|------------3---------|-------2--------------|
D||-----------------------|----------------------|----------------------|
A||-----------------------|----------------------|-------2--------------|
E||---0-------------------|----------------------|----------------------|


  Q    Q    Q    Q       Q    Q    Q    Q       Q    Q    Q    E  E   
--0-------------------|----------------------|-----------------------|
-------0----0---------|--0---------0---------|--0----0---------0-----|
-------0----0---------|--0---------0---------|--0----0---------0-----|
----------------------|----------------------|-----------------------|
----------------------|-------2--------------|--------------------2--|
--0--------------3----|-----------------0----|------------3----------|


  E  E  E  E  E  E  E  E     E  E  E  E  E  E  E  E   
-----0-----0--0-----------|-----------0--2--3--7-----|
--0-----0--0-----0-----0--|-----0--0--0-----------5--|
--0-----0--0-----0-----0--|-----0--0--0-----------5--|
-----2--------1-----1-----|--0-----------------------|
--------------------------|-----------4--------0-----|
--------------------------|--------------------------|


  E  E  E  E  E  E  E  E     E  E  E  E  E  E  E  E   
-----------------5--------|--------------5--5--5--7--|
--5-----5-----5-----5--5--|-----5-----5-----5--5-----|
--5-----5-----5-----5--5--|-----5-----5-----5--5-----|
--------------------------|--------------7--------6--|
-----------------0--------|--------------------------|
-----0-----0--------------|--0-----0-----------------|


  E  E  E   E   E   E   E   E     E  E  E  E  E  E  E  E   
--7--7--8---8---8--11--12--14--|--7-----------------------|
--5--5-------------------------|-----0--0-----0-----0-----|
--5--5--0---9---9--------------|-----0--0-----0-----0-----|
-----------10--10--------------|--------------------------|
--------------------9--10--12--|--0-----------------------|
-------------------------------|-----------3-----0-----7--|


  E  E  E   E  E  E  E   E      E   E   E   E   E  E  E  E   
--7--8--7\--6--7--8--9--10--|--11--12--12--12--12-----------|
----------------------------|-----------9---9------9-----9--|
----------------------------|-----------9---9------9-----9--|
----------------------------|-------------------9-----9-----|
----------------------------|-------0-----------------------|
----------------------------|-------------------------------|


  E  E   E   E  E  E  E  E     E  E  E  E  E  E  E  E   
--------12--10--8--7--------|--------------5-----------|
-----9----------------5--5--|-----5-----5-----5--5-----|
-----9---9---7--5-----5--5--|-----5-----5-----5--5-----|
----------------------------|--------------------------|
-------------------0--------|--0-----0-----0--------0--|
--0-------------------------|--------------------------|


  E  E  E   E  E  E  E  E     E  E  E  E  E  E  E  E   
-----------12--7-----7-----|--0--3--2--0--2--------0--|
--5-----5---0-----8-----8--|-----2--------4--5--4-----|
--5-----5---0--------------|-----3--------2-----------|
------------0--------------|--------------------------|
-----0---------------------|--------------2-----------|
------------0--------------|-----------------------0--|


  E  E  E  E  E  E  E  E     E  E   E  E  E  E  E  E   
--------------------------|------------0--1--2--3--4--|
--0--0-----0-----0-----5--|--7--5\--4-----------------|
--0--0-----0-----0--------|---------------------------|
--------------------------|---------------------------|
--------------------------|---------------------------|
--------3-----2-----0-----|---------------------------|


  E  E  E  E  E  E  E  E     E  E  E  E  E  E  E  E   
--5--5--5--5-----3--2--3--|--3--3--3-----2--0--2--2--|
-----5--5-----5-----1-----|--0--0-----0-----0-----4--|
-----5--5-----5-----------|--0--0-----0-----0-----2--|
-----------------------2--|--------------2-----------|
--0--------------0--------|--------2-----------2-----|
-----------0--------------|--------------------------|


  E  E  E  E  E  E  E  E     E  E  E  E  E  E  E  E   
--2--2-----3--5--7--------|--4-----0-----5--5--5--5--|
--4-----4-----------6--6--|-----3-----0-----5--5-----|
--2-----2-----------7--7--|-----4-----1-----5--5-----|
-----------------6--------|--3-----2-----------------|
-----------2--------------|--------------0-----------|
-----2--------------------|-----------------------0--|


  E  E  E  E  E  E  E  E     E  E  E  E  E  E  E  E   
-----3--2--3--3--3--3-----|--2--0--2--2--2--2-----3--|
--5-----1-----0--0-----0--|-----0-----2--2-----2-----|
--5-----------0--0-----0--|-----0-----3--3-----3-----|
-----------2--------------|--2-----2-----------------|
-----0--------------2-----|--------------------------|
--------------------------|-----------------2-----2--|


  E  E  E  E  E  E  E  E     E  E  E  E  E  E  E  E   
--2--7--------------------|--0-----0--0--------------|
--2-----7--7-----7-----7--|-----0--0-----0-----0-----|
--3-----8--8-----8-----8--|-----0--0-----0-----0-----|
--------------------------|--2--------1-----1-----0--|
--------------------------|--------------------------|
-----7--------7-----7-----|--------------------------|


  E  E  E  E  E  E  E  E     E  E  E  E  E  E  E  E   
--------0--2--3--7--------|--------------5--5--5--7--|
--0--0--0-----------5--5--|-----5-----5-----5--5-----|
--0--0--0-----------5--5--|-----5-----5-----5--5-----|
--------------------------|--------------7--------6--|
--------4--------0--------|--------------------------|
--------------------------|--0-----0-----------------|


  E  E  E   E   E   E   E   E     E  E  E  E  E  E  E  E   
--7--7--8---8---8--11--12--14--|--7-----------------------|
--5--5----------0--------------|-----0--0-----0-----0-----|
--5--5--0---9---9--------------|-----0--0-----0-----0-----|
-----------10--10--------------|--0-----------------------|
--------------------9--10--12--|--------------------------|
-------------------------------|-----------3-----0-----7--|


  E  E  E   E  E  E  E   E      E   E   E   E   E  E  E  E   
--7--8--7\--6--7--8--9--10--|--11--12--12--12--12-----------|
----------------------------|-----------9---9------9-----9--|
----------------------------|-----------9---9------9-----9--|
----------------------------|-------------------9-----9-----|
----------------------------|-------0-----------------------|
----------------------------|-------------------------------|


   E   E  E  E  E  E  E  E     E  E  E  E  E  E  E  E   
--12--10--8--7--------------|--------5-----------------|
----------------5--5-----5--|-----5-----5--5-----5-----|
---9---7--5-----5--5-----5--|-----5-----5--5-----5-----|
----------------------------|--------------------------|
-------------0--------------|--------0-----------------|
----------------------0-----|--0--------------0-----0--|


  E   E  E  E  E  E  E  E     E  E  E  E  E  E          
-----12--7-----7-----0--3--|--2--0--2--------0--|-----||
--5---0-----8-----8-----2--|--------4--5--4--0--|-----||
--5---0-----------------3--|--------2--------0--|-----||
---------------------------|--------------------|-----||
---------------------------|--------2-----------|-----||
------0--------------------|-----------------0--|-----||




Duration Legend
---------------
W - whole
H - half
Q - quarter
E - 8th
S - 16th
T - 32nd
X - 64th
. - note dotted
|-n-|  - n-tuplets


Tablature Legend
----------------
L - tied note
x - dead note
g - grace note
(n) - ghost note
> - accentuded note
NH - natural harmonic
AH - artificial harmonic
TH - tapped harmonic
SH - semi harmonic
PH - pitch harmonic
h - hammer on
p - pull off
b - bend
br - bendRelease
pb - preBend
pbr - preBendRelease
brb - bendReleaseBend
\n/ - tremolo bar dip
\n - tremolo bar dive
-/n - tremolo bar Release up
/n\ - tremolo bar inverted dip
/n - tremolo bar return
-\n - tremolo bar Release down
S - shift slide
s - legato slide
/ -  slide into from below or out of upwards
\ -  slide into from above or out of downwards
~ - vibrato
W - wide vibrato
tr - trill
TP - tremolo picking
T - tapping
S - slap
P - pop
< - fade in
^ - brush up
v - brush down
            

comments powered by Disqus
↑ Back to top | Joao Gilberto Tabs for Besame Mucho. Lyrics for acoustic guitar and electric guitar. Tablatures and chords are parodies/interpretations of the original songs. You may use it for private study, scholarship, research or language learning purposes only