» » »

J Mascis, Ive Been Thinking Tabs (ver.1)

Artists:  A B C D E F G H I J K L M N O P Q R S T U V W X Y Z # 

Ive Been Thinking Tabs (ver.1)

J Mascis Tabs
Rating:
5/5 (1 vote)
Ive Been Thinking lessons Tabs too difficult? Try these video lessons and learn fast
                
Std. Tuning, CAPO 5


Intro/Chorus

e:-------------0h1p0---0---------------3p0----------3p0--|
B:-----1---3---------3--------------------3---0---------3|
G:-------------------------000---------------------------|
D:-------------------------000---------------------------|
A:--3-----3-3--------------------2-2--------2---2-2------|
E:-------------------------------------------------------|


e:------------------0h1p0---0----------------3s5--33-----|
B:------------1--3--------3----------3---0--------00-----|
G:-000-------2-------------------------------------------|
D:-000------2--------------------00-----0-0--------------|
A:------0--0---------------------22----------------------|
E:-------------------------------33----------------------|

Intro repeats, but the second time the first chord (F, in C-shape)
Starts with the root note and a downward strum:

e:---------------|
B:--------1---3--|
G:-------0-------|
D:------2--------| . . . . etc.
A:--3--3-----3-3-|
E:---------------|



Verse

e:------3p0--0----------|
B:--------------11----11|
G:--------------00----00|
D:----------------------| x2
A:---3-----2---0---0h2--|
E:----------------------|

e:---------------------------------------------------|
B:---1---1------------------------1---1--------------|
G:--2---0---------0h2p0----------2---0---------------|
D:-3---2---0---0h2-----0h2------3---2---0--0---------|
A:------------------------------------------2--2-2---|
E:---------------------------------------------------|

Repeats all of the verse, then the chorus twice, followed by:



Bridge

e:----------------------|                e:---0-------0--0-------|
B:---1-------1--1-------|   On the       B:------1-----1---1-----|
G:------2-----2---2-----|   third   -->  G:----------2--2--------|
D:-3--------3--3--------|   time         D:-3--------------------|
A:----------------------|   through      A:----------------------|
E:----------------------|                E:----------------------|

e:-----------------------|
B:-----3--0-1p0----------|
G:----0--------2p0----0--|
D:-0-0-------------0h2---|
A:-----------------------|
E:-----------------------|

Repeat this 4 times, then chorus twice, whole verse twice, then first part of verse 8 
times, then end on an F chord (C-shape).
            

comments powered by Disqus
↑ Back to top | J Mascis Tabs for Ive Been Thinking. Lyrics for acoustic guitar and electric guitar. Tablatures and chords are parodies/interpretations of the original songs. You may use it for private study, scholarship, research or language learning purposes only