» » »

The Boat Song Tabs (ver.1)

Artists:  A B C D E F G H I J K L M N O P Q R S T U V W X Y Z # 

The Boat Song Tabs (ver.1)

Jj Heller
Rating:
0/5 (0 votes)

Tabs too difficult? Try these video lessons and learn fast.
                Capo 4


Intro (x2)
----------------------------------------------------------|
-------0-------------0-------------0-------------0--------|
---0-----0---0---0-----0---0---0-----0---0---0-----0---0--|
-----0-----0-------0-----0-------0-----0-------4-----4----|
-----------------------------3-------------5--------------|
-3-------------0------------------------------------------|



Verse 1
If you were a boat, my darlin' a boat, my darlin'...
----------------------------------------------------------|
-------0-------------0-------------0-------------0--------|
---0-----0---0---0-----0---0---0-----0---0---0-----0---0--|
-----0-----0-------0-----0-------0-----0-------4-----4----|
-----------------------------3-------------5--------------|
-3-------------0------------------------------------------|

If you were afraid, my darlin' afraid, my darlin'...
----------------------------------------------------------------|
-------0-------------0-------------0-------------------0--------|
---0-----0---0---0-----0---0---0-----0---0---0---0-0h2---2--0---|
-----0-----0-------0-----0-------0-----0-------4----------------|
-----------------------------3-------------5--------------------|
-3-------------0------------------------------------------------|


("Hmmmm's" same as intro)
(Verse 2 same as verse 1)

Chorus
Do you know we belong together? Ohohohoh...
(em)          (g)           (c)-slide up 2->
----------------------------------------------------------------|
-------0-------------0-------------1-------------3--------------|
---0-----0---0---0-----0---0---0-----0---0---0-----0---0--------|
-----2-----2-------0-----0-------2-----2-------4-----4----------|
-2---------------------------3-------------5--------------------|
---------------3------------------------------------------------|

Do you know my heart is yours? Mmmmmm....
-----------------------------------------3---------------------|
-------4-------------3-------------1-----------1---------------|
---0-----0---0---0-----0---0---0-----0-----0-----0---0---------|
-2---2-----2---0---0-----0-------2-----2-----2-----2-----------|
-----------------------------3---------------------------------|
---------------------------------------------------------------|

mmmmm.....
----------------------------|
-------3-----5-----3--------|
---0-----0-----0-----0---0--|
-----4-----4-----4-----4----|
-5--------------------------|
----------------------------|


The chorus may not be EXACTLY the same, but it sounds good:) If you like rate 5 
stars!!!!!!!!!!! God Bless<3
            
Tabs too difficult? Try these video lessons and learn fast.




comments powered by Disqus
↑ Back to top | Tablatures and chords are parodies/interpretations of the original songs. You may use it for private study, scholarship, research or language learning purposes only