>
 >
You Keep Me Hangin' On

You Keep Me Hangin' On Guitar Tabs

J. J. Cale - You Keep Me Hangin' On chords, tabs, tablatures, lyrics

Guitar lessons | Add/correct | Request | Top 50 tabs Artists:  A B C D E F G H I J K L M N O P Q R S T U V W X Y Z 0-9

You Keep Me Hangin' On Guitar Tabs – J. J. Cale

CD, Sheet music, Poster

Do you like You Keep Me Hangin' On? Share with your friends now
Tabs
Intro: C G Am G F G C 

C            G              Am               G       
Every time I stop awhile and think about your sweet smile

F                 G        C
I can't do nothing else all day
The way that you wink your eye every time you walk by
Baby what can I say

F           G         C
You keep me hanging on

F              G           C
I can't get nothing else on

When the evening rolls around
And there ain't nobody around
Baby, I think of you

SOLO   F G C (2x)

|-------------------------------------------------------------------------------|
|-------13-13------13----15b17(15)----------------------------------------------|
|---14---------14---------------------------------------------------------------|
|-------------------------------------------------------------------------------|
|-------------------------------------------------------------------------------|
|-------------------------------------------------------------------------------|

|----------------------15-15------15h17/15-15-----------------------------------|
|---13h15p13----15/17---------17------------------------------------------------|
|-------------------------------------------------------------------------------|
|-------------------------------------------------------------------------------|
|-------------------------------------------------------------------------------|
|-------------------------------------------------------------------------------|

|---15p12-----------------------------------------------------------------------|
|----------15--13----15b17------13----------------------------------------------|
|---------------------------14--------------------------------------------------|
|-------------------------------------------------------------------------------|
|-------------------------------------------------------------------------------|
|-------------------------------------------------------------------------------|

|-------------------------------------------------------------------------------|
|---15b17(15)--------13-15b17--------------------------------------------------|
|----------------14-------------12-12------------------------------------------|
|-------------------------------------------------------------------------------|
|-------------------------------------------------------------------------------|
|-------------------------------------------------------------------------------|

Of all the stars at night
None can match the brilliant light
That I see in your eyes
The humble warmth, the glow
Baby child I know, I still think of you

C                   G             Am               G
If I could hold you Just one time Stop that moment in my mind 

F    G    C

Solo 2 C  G  Am  G  F  G  C (2x)

|----------12-12h13----13/15--15----15/17-----15--12---------------------------|
|---13h15----------------------------------------------13-13--------------------|
|-------------------------------------------------------------------------------|
|-------------------------------------------------------------------------------|
|-------------------------------------------------------------------------------|
|-------------------------------------------------------------------------------|

|-------------------------------------------------------------------------------|
|-------13----------------------------------------------------------------------|
|---14------14--12--------------------------------------------------------------|
|-------------------(16)--14-/12------------------------------------------------|
|-------------------------------------------------------------------------------|
|-------------------------------------------------------------------------------|

|-------------------------------------------------------------------------------|
|-------------------------------15b17--13-13------------------------------------|
|------------12h14--12------14--------------------------------------------------|
|---12/14-----------------------------------------------------------------------|
|-------------------------------------------------------------------------------|
|-------------------------------------------------------------------------------|

|-------------------12----------------------------------------------------------|
|---------13----15------15----13-13---------------------------------------------|
|----/14------------------------------------------------------------------------|
|-------------------------------------------------------------------------------|
|-------------------------------------------------------------------------------|
|-------------------------------------------------------------------------------|





Comments


Popular J. J. Cale tabs & chords
Call Me The Breeze Chords
Lady Luck Chords
Mama Don't Chords
After Midnight 2 Tabs
Cajun Moon Tabs
Cajuun Moon Tabs
Cocaine Tabs
Don't Go To Strangers Tabs
It's Easy Tabs
Lies Tabs


Song lyrics



↑ Back to top | Tablatures and chords are parodies/interpretations of the original songs. You may use it for private study, scholarship, research or language learning purposes only
© 2014 AZChords.com Contact us | Privacy policy | DMCA | Add/correct tabs | Request tabs | Top 50 tabs