>
 >
Hold On

Hold On Guitar Tabs

J. J. Cale - Hold On chords, tabs, tablatures, lyrics

Guitar lessons | Add/correct | Request | Top 50 tabs Artists:  A B C D E F G H I J K L M N O P Q R S T U V W X Y Z 0-9

Hold On Guitar Tabs – J. J. Cale

CD, Sheet music, Poster

Do you like Hold On? Share with your friends now
Tabs
(Troubadour)

E7#9                                  Am    /    /    /    E7#9    /    /   /
          First time I seen you,

          Am   /   /   /  E7#9   /   /   /             Am             C7                 
 D      E7#9
I knew                                         You had    come un-done for some-one      
   mistreated you


E7#9                                      Am     /    /    /    E7#9    /    /   /
        The ringing in your ears,
                      Am   /   /   /  E7#9   /   /                   Am          C7      
      D               E7#9             Am  / / /
the salt in your tears                            Yes, I know I would feel sick at a 
deal,      yes I do


Am Bbm Bm                            Bbm     Am                                         
 Gm /
                Some bright morning,                    the sun will shine again

/       /                           E7#9
Some bright morning, start all over again

             Am       E7#9                            Am / / /    E7#9 / / /
Hold on,                     you've got to hold on

    Am           C7       D                   E7#9            Am   E7#9
If nothing is real, I know how it feels, yes I do

Pedal steel solo

Am  E7#9   Am   E7#9   Am   E9   E7b9  Am  E7#9

|----------------------------------------------------------10/1212-15-13-12----|
|----------------------5-8-6-5-5-5---55h6p5\3/56-6----------------------------|
|---------7-5--------7-------------7-----------------7/9------------------------|
|-----5-7--------6-7------------------------------------------------------------|
|--/7---------------------------------------------------------------------------|
|-------------------------------------------------------------------------------|

|-------------------------------------------------------------------------------|
|---13/15-13--------------------------------------------------------------------|
|-------------14/16---12--10--9-------------------------------------------------|
|-------------------------------------------------------------------------------|
|-------------------------------------------------------------------------------|
|-------------------------------------------------------------------------------|

Guitar solo

Bm  Bbm  Am   Abm  Gm  E7#9

01:25
|-------------------------------------------------------------------------------|
|---7-8-10~---8-7-------------------6-5------------5---5-6-8-6----6-6--8--------|
|-----------------7---7-8--7-9--7-------5--5-45-7---7-------------7-----7-5-3--|
|-------------------9----------------------------------------------------------5|
|-------------------------------------------------------------------------------|
|-------------------------------------------------------------------------------|

                                01:44
|-------------------------------------8-8-10------------------------------------|
|--6-5--5-6-5-------------------5-------------10-10-----------------------------|
|--------------7--5-5-4---------5-----------------------------------------------|
|-------------------------------7-----------------------------------------------|
|-------------------------------------------------------------------------------|
|-------------------------------------------------------------------------------|

            Am       E7                                Am             E7#9
Hold on,                when everything is         gone

          Am        C7             D               E7#9
I know how it feels to get a dirty deal,        I do





Comments


Popular J. J. Cale tabs & chords
Low Down Chords
Teardrops In My Tequila Chords
Thirteen Days Chords
Cocain Tabs
Crazy Mama Tabs
Don Go To Strangers Tabs
Don't Go To Strangers Tabs
Guess I Lose Tabs
I'll Be There If You Ever Want Me Tabs
Magnolia Tabs


Song lyrics



↑ Back to top | Tablatures and chords are parodies/interpretations of the original songs. You may use it for private study, scholarship, research or language learning purposes only
© 2014 AZChords.com Contact us | Privacy policy | DMCA | Add/correct tabs | Request tabs | Top 50 tabs