>
 >
Don't Cry Sister

Don't Cry Sister Guitar Tabs

J. J. Cale - Don't Cry Sister chords, tabs, tablatures, lyrics

Guitar lessons | Add/correct | Request | Top 50 tabs Artists:  A B C D E F G H I J K L M N O P Q R S T U V W X Y Z 0-9

Don't Cry Sister Guitar Tabs – J. J. Cale

CD, Sheet music, Poster

Do you like Don't Cry Sister? Share with your friends now
Tabs
Intro

|--8-10-11-10-810(10)------8---------------------------------------------------|
|-----------------------11----11-8-118-----------------------------------------|
|-----------------------------------------10--8-(10)-12--10-(8)-10-8------------|
|---------------------------------------------------------------------8h10------|
|-------------------------------------------------------------------------------|
|-------------------------------------------------------------------------------|
								
|--8------------------------------8-10-1111h13--118-10-8----8-----------------|
|----8-11--------------------------------------------------11-------11-8-----8-8|
|---------10------8-10----------------------------------------------------10----|
|------------10---------8--10---------------------------------------------------|
|-------------------------------------------------------------------------------|
|-------------------------------------------------------------------------------|

|-------------------------------------------------------------------------------|
|-810-11--10-8-----------------------------------------------------------------|
|----------------10-8---10-8----------------------------------------------------|
|-------------------------------------------------------------------------------|
|-------------------------------------------------------------------------------|
|-------------------------------------------------------------------------------|

SOLO:
|-------------------------------------------------------------------------------|
|-------4---3----------------------4-3(3)---------------------------------------|
|-53h5-------35p3-5---3---5--3-5-----------3-5-3-(5)3h5---5-3h5h8--5--7-3h5p0|
|---------------------5-3------------------5-----------3h5----------------------|
|-------------------------------------------------------------------------------|
|-------------------------------------------------------------------------------|

|------------------------------------10h11----10--8-----------------------------|
|-----------------4-3(3)-------------------------------8------------------------|
|--------3-53-5----------5---3-5-------12----10--8--8-------10-8--3--5-3--5----|
|-3-5-----------------------5----------------------------10---------------------|
|---------------------------------------------------------------10-5--6---------|
|--------------------------------------------------------------------------6----|

|-------------------------------------------------------------------------------|
|-6-4----64p3--66/8p64-46-8-------------------------------------------------|
|------5------------------------------------------------------------------------|
|-------------------------------------------------------------------------------|
|-------------------------------------------------------------------------------|
|-------------------------------------------------------------------------------|









Intro: Cm    Bb Cm   Bb Cm      Cm   Bb Cm  Bb Cm


Cm                              Bb                          Cm
Dont cry sister cry, itll be alright in the morning
 (Cm)                      Bb                           Cm
Dont cry sister cry, everythingll be just fine
(Cm)                            Bb                Cm          
Dont cry sister cry, itll be alright, I tell you no lie
(Cm)                                Bb                  Cm
Dont cry sister cry, dont do it, dont do it


Cm                         Bb                  Ab         Bb
When old man trouble knocks on your door
Cm                         Bb           Ab           G
Dont give him no key, he just wants more
Cm                  Bb     Ab    Cm
Hell turn your life to misery
Cm                      G
Kick you down, just like me

Cm                               Bb                 Cm
Dont cry sister cry, itll be alright, itll be alright
Cm                          Bb                         Cm
Dont cry sister cry, everythingll be just fine

Cm             Bb                      Ab      Bb
Woke downhearted and you feel so bad
       Cm                 Bb                Ab                G
Somebody wants something of nothing you had
Cm             Bb          Ab           Bb
Love dont come too easy, you see
Cm                                 G
A little bit of you and a little bit of me

Cm                              Bb                          Cm
Dont cry sister cry, itll be alright in the morning
 (Cm)                      Bb                           Cm
Dont cry sister cry, everythingll be just fine
Bb                            Cm
Everythingll be just fine
Bb                            Cm
Everythingll be just fine


Dont cry sister cry, dont do it, dont do it
Dont cry sister cry, dont do it, dont do it





Comments


Popular J. J. Cale tabs & chords
Homeless Chords
Lady Luck Chords
Riverboat Song Chords
Travelin' Light Chords
Call Me The Breeze Tabs
Call The Docter Tabs
Cloudy Day Tabs
Cocain Intro Tabs
Lies Tabs
Like You Used To Tabs


Song lyrics



↑ Back to top | Tablatures and chords are parodies/interpretations of the original songs. You may use it for private study, scholarship, research or language learning purposes only
© 2014 AZChords.com Contact us | Privacy policy | DMCA | Add/correct tabs | Request tabs | Top 50 tabs