» » »

J. J. Cale, Cloudy Day Tabs (ver.1)

Artists:  A B C D E F G H I J K L M N O P Q R S T U V W X Y Z # 

Cloudy Day Tabs (ver.1)

J. J. Cale Tabs
 Rating:
4/5 (4 votes)
Cloudy Day lessons Tabs too difficult? Try these video lessons and learn fast
                A beautiful instrumental from Shades (1981) album


00:00 – intro guitar
C#m  Fm	C#m  Fm	C#m  Fm	A  G#  C#m        (2x)
Fm  B		Fm  G#

01:13 – guitarsolo
C#m  Fm	C#m  Fm	C#m  Fm	A  G#  C#m        

01:44 – sax solo
C#m  Fm	C#m  Fm	C#m  Fm	A  G#  C#m        (2x)
Fm  B		Fm  G#

02:59 – bass solo
C#m  Fm	C#m  Fm	C#m  Fm	A  G#  C#m

03:31 – sax solo
C#m  Fm	C#m  Fm	C#m  Fm	A  G#  C#m

04:01 – guitar & sax solo
C#m  Fm	C#m  Fm	C#m  Fm	A  G#  C#m        
Fm  B		Fm  G#

04:47 – outro guitar & sax solo
C#m  Fm	C#m  Fm	C#m  Fm	A  G#  C#m 


Intro solo
|-------------------------------------------------------------------------------|
|-/9-9-9/2---/9-9-9/2---/9-9-9/2---4-5-7-5-4-5p4--------------------------------|
|-------------------------------------------------4-6---------------------------|
|-------------------------------------------------------------------------------|
|-------------------------------------------------------------------------------|
|-------------------------------------------------------------------------------|

|-------------------------------------------------------------------------------|
|-/9-9/2—-9/12/14—-9/12p9—7-9p7--/9-9—-7-9-7------------------------------------|
|---------------------------------------------8-9-11—9-8-9p8--------------------|
|-------------------------------------------------------------9-11--------------|
|-------------------------------------------------------------------------------|
|-------------------------------------------------------------------------------|

|-------------------------------------------------------------------------------|
|-2-4h5p4-2-4-4---2-4h5p4—-2-4-4---(4h5/9)--------------------------------------|
|-------------------------------------------------------------------------------|
|-------------------------------------------------------------------------------|
|-------------------------------------------------------------------------------|
|-------------------------------------------------------------------------------|

Guitarsolo

|-------------------------------------------------------------------------------|
|---------12b14(12)/14---------------12-14-14—--12-14-14/16-14-----/5-/5--------|
|--11--13---------------11-13-13-11--------------------------------/6-/6--------|
|-------------------------------------------------------------------------------|
|-------------------------------------------------------------------------------|
|-------------------------------------------------------------------------------|

|-------------------------------------------------------------------------------|
|--/10--/10-/10----/10-/10--------2-4h5/7—-2-4p2--------------------------------|
|--/11--/11-/11----/11-/11------------------------------------------------------|
|-------------------------------------------------------------------------------|
|-------------------------------------------------------------------------------|
|-------------------------------------------------------------------------------|
            
Submit corrections

comments powered by Disqus
↑ Back to top | J. J. Cale Tabs for Cloudy Day. Lyrics for acoustic guitar and electric guitar. Tablatures and chords are parodies/interpretations of the original songs. You may use it for private study, scholarship, research or language learning purposes only