» » »

Idoit Boyfriend Bass tabs (ver.1)

Artists:  A B C D E F G H I J K L M N O P Q R S T U V W X Y Z # 

Idoit Boyfriend Bass tabs (ver.1)

Jimmy Fallon
Rating:
0/5 (0 votes)

Hard to play? Try these video lessons and learn fast.
                This is my first tab.I got this one from my guitar teacher
Part A:
G--------4--------------6--------------8-----------9----------------11----11------
D---------------------------------------------------------------------------------
A---2-----------4--------------6-------------7------------9-----------------------
E---------------------------------------------------------------------------------

Part B:
G---------9---------8-------6--------8---------6---------4--------9-------8-------
D---------------------------------------------------------------------------------
A---7---------6--------4---------6--------4---------2--------7-------6------------
E---------------------------------------------------------------------------------

G-----------6--------11--11--------11----------11--11------11---------------------
D---------------------------------------------------------------------------------
A------4---------9------------9-9----------9-----------9-9------------------------
E---------------------------------------------------------------------------------

Just keep on doing that.find out the order yourself, u lazy punks
            
Hard to play? Try these video lessons and learn fast. | Correct




comments powered by Disqus
↑ Back to top | Tablatures and chords are parodies/interpretations of the original songs. You may use it for private study, scholarship, research or language learning purposes only