>
 >
Voodoo Chile

Voodoo Chile Guitar Tabs

Jimi Hendrix - Voodoo Chile chords, tabs, tablatures, lyrics

Guitar lessons | Add/correct | Request | Top 50 tabs Artists:  A B C D E F G H I J K L M N O P Q R S T U V W X Y Z 0-9

Voodoo Chile Guitar Tabs – Jimi Hendrix

CD, Sheet music, Poster

Do you like Voodoo Chile? Share with your friends now
Tabs
PROPS GO TO: Dan Selwood

Standard Tuning 


X = muted atrumming
~ = vibrato
^ = bend



(random muted strumming)
E---------------XX-----------------------------------------------------------------
B------X--------XXX-----------------------------------------------------------------
G------X-X-----------------9~~----9~----------------9-------9-XX-------------------
D------X-X--------------------7-9----5-5-7-5-----------7-9----------------------------
A------X-------------------------------------H7----------------------------------------
E--XX-------XX-----------------------------------------------------------------------


E----------------------------------------------------------------------------------------
B--------------------------------------X-X-----------------------------------------------
G--9~~----9~----------------9-------9^-XX-----------------------------------------------
D-----7-9----5-5-7-5-----------7-9------------------------------------------------------
A-----------------------H7---------------------------------------------------------------
E----------------------------------------------------------------------------------------


E---------------------------------------------------------------------------------------
B--------------------------------------X-X----------------------------------------------
G--9~~----9~----------------9-------9^-XX-----------------------------------------------
D-----7-9----5-5-7-5-----------7-9------------------------------------------------------
A-----------------------H7--------------------------------------------------------------
E---------------------------------------------------------------------------------------



E---------------------------------------------------------------------------------------
B----------------------------------------------------------------------------------------
G--9~~----9~----------------9-------9~~----14^-14^-12------------------------------------
D-----7-9----5-5-7-5-----------7-9---------------------14--------------------------------
A---------------------7~~---------------------------------------------------------------
E-------------------------------------------------------------12/0-----------------------


E--------------------------------------------------------------------------------------
B---------------2^-0------------------2^-0--------------------------------------------
G---------------------2~~-------------------2~--------------15^-15^ 14-12~~~-------------
D------------------------------------------------------------------------------------
A---------------------------------------------------------------------------------------
E--0-(let ring)-----------0-3-0------------------0-3-0-----------------------------------


E-------------------------------------------------------------------------------------
B--------------------2^-0-------------2^-2^-2^-2^-2^-2^-2^-2^- (slow realise)--------
G-------------------------2~----------------------------------------------------------
D-----------2---------------------------------------------------------------------------
A----15/0---2------------------------------------------------------------------------
E----15-0---0----------------0-3-0---------------------------------------------------


E----------------------------------------------------------------------------------------
B------------2^-0-----2-----------------------------------------------------------------
G-----------------2-3-----------------------------------------------------------------
D--------------------------------------------------------------------------------------
A--------------------------------------------------------------------------------------
E--12/0--0----------------0-3-0----------------------------------------------------------

( the solo goes something like this, but i dont think its anywhere close...erm
E--------------------------------------------------------------------------------------
B--15^-15^-15-12-h15-p12---------------------------------14^-14^-14^-12~~~~-----------
G------------------------15-14-12~-12-15-12-------------------------------------------
D--------------------------------------------12-15-12----------------------------------
A------------------------------------------------------------------------------------
E--------------------------------------------------------------------------------------

E-------------------------------------------------------------------------------
B-----------------2^-0---------------2^-0-------------------------------------------
G-----------------------3-3---------------2~~--------------------------------------
D-----------------------3-3--------------------------------------------------------
A--12/0-----------------------------------------------------------------------------
E--12/0---0-3-0--------------3-0-3-------------3-0-------------------------------


Standard Tuning 


X = muted atrumming
~ = vibrato
^ = bend



(random muted strumming)
E---------------XX-----------------------------------------------------------------
B------X--------XXX-----------------------------------------------------------------
G------X-X-----------------9~~----9~----------------9-------9-XX-------------------
D------X-X--------------------7-9----5-5-7-5-----------7-9----------------------------
A------X-------------------------------------H7----------------------------------------
E--XX-------XX-----------------------------------------------------------------------


E----------------------------------------------------------------------------------------
B--------------------------------------X-X-----------------------------------------------
G--9~~----9~----------------9-------9^-XX-----------------------------------------------
D-----7-9----5-5-7-5-----------7-9------------------------------------------------------
A-----------------------H7---------------------------------------------------------------
E----------------------------------------------------------------------------------------


E---------------------------------------------------------------------------------------
B--------------------------------------X-X----------------------------------------------
G--9~~----9~----------------9-------9^-XX-----------------------------------------------
D-----7-9----5-5-7-5-----------7-9------------------------------------------------------
A-----------------------H7--------------------------------------------------------------
E---------------------------------------------------------------------------------------



E---------------------------------------------------------------------------------------
B----------------------------------------------------------------------------------------
G--9~~----9~----------------9-------9~~----14^-14^-12------------------------------------
D-----7-9----5-5-7-5-----------7-9---------------------14--------------------------------
A---------------------7~~---------------------------------------------------------------
E-------------------------------------------------------------12/0-----------------------

main riff
E--------------------------------------------------------------------------------------
B---------------2^-0------------------2^-0--------------------------------------------
G---------------------2~~-------------------2~--------------15^-15^ 14-12~~~-------------
D------------------------------------------------------------------------------------
A---------------------------------------------------------------------------------------
E--0-(let ring)-----------0-3-0------------------0-3-0-----------------------------------


E-------------------------------------------------------------------------------------
B--------------------2^-0-------------2^-2^-2^-2^-2^-2^-2^-2^- (slow realise)--------
G-------------------------2~----------------------------------------------------------
D-----------2---------------------------------------------------------------------------
A----15/0---2------------------------------------------------------------------------
E----15-0---0----------------0-3-0---------------------------------------------------


E----------------------------------------------------------------------------------------
B------------2^-0-----2-----------------------------------------------------------------
G-----------------2-3-----------------------------------------------------------------
D--------------------------------------------------------------------------------------
A--------------------------------------------------------------------------------------
E--12/0--0----------------0-3-0----------------------------------------------------------

( the solo goes something like this, but i dont think its anywhere close...erm
E--------------------------------------------------------------------------------------
B--15^-15^-15-12-h15-p12---------------------------------14^-14^-14^-12~~~~-----------
G------------------------15-14-12~-12-15-12-------------------------------------------
D--------------------------------------------12-15-12----------------------------------
A------------------------------------------------------------------------------------
E--------------------------------------------------------------------------------------

E---------0-3-0-----------------------------------------------------------------
B--0-3-0---------------3-2-------------------2-^---------------------------------
G--------------------------3-2---------------------------19^-~~~-----------------------
D------------------------------0-2------------------------------------------------
A------------------------------------------------------------------------------
E----------------0-3-0----------------0-3-0----------------------------------------


i cant be assed to tab the rest its basicly the main riff and more solos and shit!





Comments


Popular Jimi Hendrix tabs & chords
Hear My Train A Comin 3 Bass Tabs
Belly Button Window Chords
Astro Man Tabs
Bold As Love 2 Tabs
Dolly Dagger Tabs
Hear My Train A Comin Intro Tabs
Highway Chile 1 Tabs
Hush Now Tabs
Lover Man Intro Tabs
Spanish Castle Of Magic 1 Tabs


Song lyrics



↑ Back to top | Tablatures and chords are parodies/interpretations of the original songs. You may use it for private study, scholarship, research or language learning purposes only
© 2014 AZChords.com Contact us | Privacy policy | DMCA | Add/correct tabs | Request tabs | Top 50 tabs