» » »

Jimi Hendrix, Purple Haze Tabs (ver.3)

Artists:  A B C D E F G H I J K L M N O P Q R S T U V W X Y Z # 

Purple Haze Tabs (ver.3)

Jimi Hendrix Tabs
 Rating:
4/5 (4 votes)
Purple Haze lessons Tabs too difficult? Try these video lessons and learn fast
                E|-----------------
B|-----------------
G|-----------------
D|---7---7---7---7-
A|-6-6-6-6-6-6-6-6-
E|-5---5---5---5---

E|-----------------------------------------------------------------------
B|-------8-------------------8-------------------------------------------
G|-----7-------------------7-------------------------------------7-7-7H9-
D|-7/9-----7-5---------7/9-----7-5-7-7^-5-5-------5-7-7^-5H7-7/9---------
A|-------------5---5H7----------------------0----------------------------
E|---------------0----------------------------0-3------------------------

E|---------------------------
B|-----8-8-------------------
G|-----7-7-3-3-3-3-5-5-5-----
D|-----6-6-5-5-5-5-7-7-7-----
A|-----7-7-5-5-5-5-7-7-7-5-6-
E|-0-0-----3-3-3-3-5-5-5-----

E|-----------------
B|-----------------
G|-----------------
D|---7---7---7---7-
A|-6-6-6-6-6-6-6-6-
E|-5---5---5---5---

E|-----------------------------------------------------------------------
B|-------8-------------------8-------------------------------------------
G|-----7-------------------7-------------------------------------7-7-7H9-
D|-7/9-----7-5---------7/9-----7-5-7-7^-5-5-------5-7-7^-5H7-7/9---------
A|-------------5---5H7----------------------0----------------------------
E|---------------0----------------------------0-3------------------------

E|---------------------------
B|-----8-8-------------------
G|-----7-7-3-3-3-3-5-5-5-----
D|-----6-6-5-5-5-5-7-7-7-----
A|-----7-7-5-5-5-5-7-7-7-5-6-
E|-0-0-----3-3-3-3-5-5-5-----

E|-----------------
B|-----------------
G|-----------------
D|---7---7---7---7-
A|-6-6-6-6-6-6-6-6-
E|-5---5---5---5---

E|-----------------------------------------------------------------------
B|-------8-------------------8-------------------------------------------
G|-----7-------------------7-------------------------------------7-7-7H9-
D|-7/9-----7-5---------7/9-----7-5-7-7^-5-5-------5-7-7^-5H7-7/9---------
A|-------------5---5H7----------------------0----------------------------
E|---------------0----------------------------0-3------------------------

E|---------------------------
B|-----8-8-------------------
G|-----7-7-3-3-3-3-5-5-5-----
D|-----6-6-5-5-5-5-7-7-7-----
A|-----7-7-5-5-5-5-7-7-7-5-6-
E|-0-0-----3-3-3-3-5-5-5-----

E|-----------------
B|-----------------
G|-----------------
D|---7---7---7---7-
A|-6-6-6-6-6-6-6-6-
E|-5---5---5---5---

E|-----------------------------------------------------------------------
B|-------8-------------------8-------------------------------------------
G|-----7-------------------7-------------------------------------7-7-7H9-
D|-7/9-----7-5---------7/9-----7-5-7-7^-5-5-------5-7-7^-5H7-7/9---------
A|-------------5---5H7----------------------0----------------------------
E|---------------0----------------------------0-3------------------------

E|---------------------------
B|-----8-8-------------------
G|-----7-7-3-3-3-3-5-5-5-----
D|-----6-6-5-5-5-5-7-7-7-----
A|-----7-7-5-5-5-5-7-7-7-5-6-
E|-0-0-----3-3-3-3-5-5-5-----
            
Submit corrections

comments powered by Disqus
↑ Back to top | Jimi Hendrix Tabs for Purple Haze. Lyrics for acoustic guitar and electric guitar. Tablatures and chords are parodies/interpretations of the original songs. You may use it for private study, scholarship, research or language learning purposes only