>
 >
Purple Haze

Purple Haze Bass Tabs

Jimi Hendrix - Purple Haze chords, tabs, tablatures, lyrics

Guitar lessons | Add/correct | Request | Top 50 tabs Artists:  A B C D E F G H I J K L M N O P Q R S T U V W X Y Z 0-9

Purple Haze Bass Tabs – Jimi Hendrix

CD, Sheet music, Poster

Do you like Purple Haze? Share with your friends now
Bass TabsBass Tabs v2Bass Tabs v3ChordsDrum TabsTabsTabs v2Tabs v3Tabs v4Tabs v5Tabs v6Tabs v7Ukulele
-------------------------------------------------------------------------------
			    Purple Haze - The Jimi Hendrix Experience
-------------------------------------------------------------------------------


Tuning:Standard

G|--------------------------------------------------------------------------|
D|-----2-------2-------2-------2------2------2------2------2------2------2--|
A|--------------------------------------------------------------------------|
E|-0-------0-------0-------0-----0-------0-------0------0------0-----0------|            
                                                             x2

G|--------------------------------------------------------------------------|
D|--------------------------------------------------------------------------|
A|---------7-----------7----------456---------7-------7---------456---------|
E|--00-----------00---------333-5--------00------00-------333-5-------------|

G|---------------------------------------------------------------------------|
D|---------------------------------------------------------------------------|
A|-------7------7---------456------7------7--------456-----7-----7------456--|
E|--00------00------333-5------00-----00-----333-5-----00----00---333-5----0-|

   S'cuse me while i kiss the sky

G|--------------------------------------------------------------------------|
D|--------------5-------5---------------------------------------------------|
A|--975-----5-------5-------------------------------------------------------|
E|-------7-------7----------------------------------------------------------|

G|--------------------------------------------------------------------------|
D|--------------------------------------------------------------------------|
A|-----7-------7--------456--------7------7--------456-----7-----7----456---|
E|--00-----00-----333-5-------00-----00----333-5------00----00---333-5----0-|

G|--------------------------------------------------------------------------|
D|-------------5------5-----------------------------------------------------|
A|--975-----5------5--------------------------------------------------------|
E|-------7-------7----------------------------------------------------------|
outro
G|------------------------------------------------------------------|
D|------------------------------------------------------------------| x3
A|-7777--99---55----------------------------------------------------|
E|------------------------------------------------------------------|
Guitar solo on you own


G|-------------------------------------------------------------------|
D|-----7-------7-----------------------------------------------------| x3
A|-------------------------456---------------------------------------|
E|-00------00------333--5--------------------------------------------|

G|--------------------------------------------------------------------------|
D|-------------5------5-----------------------------------------------------|
A|--975-----5------5--------------------------------------------------------|
E|-------7-------7----------------------------------------------------------|
play outro and fade out





Comments


Popular Jimi Hendrix tabs & chords
Fire 3 Bass Tabs
Drifting Chords
Rainy Day Dream Away 1 Chords
Crosstown Traffic 1 Tabs
Hear My Train A Comin Tabs
Hey Joe (Solo) Tabs
Little Wing (Intro) Tabs
One Rainy Day Wish 1 Tabs
Voodoo Child 1 Tabs
Little Wing Ukulele


Song lyrics



↑ Back to top | Tablatures and chords are parodies/interpretations of the original songs. You may use it for private study, scholarship, research or language learning purposes only
© 2014 AZChords.com Contact us | Privacy policy | DMCA | Add/correct tabs | Request tabs | Top 50 tabs