» » »

Purple Haze Tabs (ver.1)

Artists:  A B C D E F G H I J K L M N O P Q R S T U V W X Y Z # 

Purple Haze Tabs (ver.1)

Jimi Hendrix
Rating:
0/5 (0 votes)

Hard to play? Try these video lessons and learn fast.
                PROPS GO TO: Szymon Andersen

Here is a more accurate tab of Puple haze;


Jimi Hendrix - Purple haze.(Album version)
|-----------------------------------------------------------------------------------------------|
|Okay, to all you Jimi Hendrix fans out there who just started to play guitar:                  |
|This is NOT as hard as it looks!! You just have to give it an hour or two every now and then,  |
|just listen to the record and learn it part by part, instead of trying to learn it all at once,| 
|and you'll play it like jimi did! It's all here! Enjoy! =)                                     |
|-----------------------------------------------------------------------------------------------|


 =  Slide up/down to #fret.

v = Vibrato.

b = Bend.

Intro
e|----------------------------------------------|
h|----------------------------------------------|
g|----------------------------------------------|
D|------8-------8-------8------8----------------|
A|----------------------------------------------|
E|--6-------6------6------6---------------------|




e|----------------------------------------------|
h|------------9---------------------------------|
g|--------7-------------------------------------|
D|--8>9-----------7v----7>5--0------------------|
A|-------------------------------7--7v----------|
E|----------------------------------------------| x2




e|-----------------------------------------------------------------------------------|
h|-----------------------------------------------------------------------------------|
g|------------------------------------------------------------------------7--7--9v---|
D|--------5---7---5v---5-----------------------5----7--5>7v---7--5--5>9--------------|
A|--5>7-------------------0---------------5>7----------------------------------------|
E|----------------------------0---3v-------------------------------------------------|




Main riff:  


     e+9?   G      A
e|----------------------------------------------|
h|---8------------------------------------------|
g|---7------------------------------------------|
D|---6-------5------7---------------------------|
A|---7-------5------7---------------------------|
E|---0-------3------5---------------------------|




e|----------------------------------------------|
h|--------------------------8b-------------8b---|
g|----------------------7--------------7--------|
D|--5>7--5--------7>9------------7>9------------|
A|----------7-----------------------------------|
E|----------------------------------------------|



My version of this awesome solo: 


               Help me                                Help me!
e|--------------------------------------------------------------------------------|
h|-------------12b--------------12b-----------------15b--------------15b----------|
g|---------9----------------9-----------------12----------------12----------------|
D|---9>11-------------9>11-------------13>14-------------13>14--------------------|
A|--------------------------------------------------------------------------------|
E|--------------------------------------------------------------------------------|




e|----------------------------------------------|
h|-------15---------15---15--15-----------------|
g|---14------14-----14---14--14-----------------|
D|----------------------------------------------|
A|----------------------------------------------|
E|----------------------------------------------|



e|----------------------------------------------------------------|
h|----------------------------------------------------------------|
g|--16--18--16v--16--14--13----13--14--13--------13--14--16-------|
D|------------------------------------------16--------------------|
A|----------------------------------------------------------------|
E|----------------------------------------------------------------|


(01:21)
e|-------------------------------------------------|
h|-------------------------------------------------|
g|--------12--14--12------12v--12-12--11-----------|
D|-12>14--------------14------------------14---12--|
A|-------------------------------------------------|
E|-------------------------------------------------|

(01:24)
e|----------------------------------------------|
h|----------------------------------------------|
g|----------------------------------------------|
D|--12--14--12--14--12v-------------------------|
A|----------------------------------------------|
E|----------------------------------------------|

e|----------------------------------------------|
h|----------------------------------------------|
g|-------------11b--------------11--------------|
D|--11>12--14-------14--12--14-------12---------|
A|----------------------------------------------|
E|----------------------------------------------|

e|----------------------------------------------|
h|----------------------------------------------|
g|--11------11------11--------------------------|
D|------12------12------12v---------------------|
A|----------------------------------------------|
E|----------------------------------------------|

(01:29)
e|----------------------------------------------|
h|----------------------------------------------|
g|-------------11--12--11>12>11-----------------|
D|--11>12--14-----------------------------------|
A|----------------------------------------------|
E|----------------------------------------------|

e|----------------------------------------------|
h|----------------------------------------------|
g|---11>12>11--------------------12b------------|
D|--------------14--12v---12>14--------14-------|
A|----------------------------------------------|
E|----------------------------------------------|


During, ooh!, aah!, ooh!, aah! etc..


e|----------------------------------------------|
h|------------9---------------------------------|
g|--------7-------------------------------------|
D|--8>9-----------7v----7>5--0------------------|
A|-------------------------------7--7v----------|
E|----------------------------------------------| x2



e|----------------------------------------------|
h|----------------------------------------------|
g|----------------------------------------------|
D|-------5--7--5>9v----5------------------------|
A|--5>7-------------------0---------------------|
E|---------------------------0---3v-------------|


e|----------------------------------------------|
h|------------9---------------------------------|
g|--------7-------------------------------------|
D|--8>9-----------7v----7>5--0------------------|
A|-------------------------------7--7v----------|
E|----------------------------------------------| 



Ending part (02:11)

e|----------------------------------------------|
h|----------------------------------------------|
g|--------------12v--------------12v------------|
D|----------12--------10>12--14-----------------|
A|---12>14--------------------------------------|
E|----------------------------------------------|

e|----------------------------|
h|----------------------------|
g|--12--14--12-------12v------|
D|--------------14------------|
A|----------------------------|
E|----------------------------|


e|----------------------------------------------|
h|-17v--17v--17v--17v--17v--17v--17v--etc..-----|
g|----------------------------------------------|
D|----------------------------------------------|
A|----------------------------------------------|
E|----------------------------------------------|


If you find an error in the tab, plz fix it and mail the correct txt file to me!
            
Hard to play? Try these video lessons and learn fast. | Correct




comments powered by Disqus
↑ Back to top | Tablatures and chords are parodies/interpretations of the original songs. You may use it for private study, scholarship, research or language learning purposes only