>
 >
Little Wing

Little Wing Guitar Tabs

Jimi Hendrix - Little Wing chords, tabs, tablatures, lyrics

Guitar lessons | Add/correct | Request | Top 50 tabs Artists:  A B C D E F G H I J K L M N O P Q R S T U V W X Y Z 0-9

Little Wing Guitar Tabs – Jimi Hendrix

CD, Sheet music, Poster

Do you like Little Wing? Share with your friends now
Bass TabsBass Tabs v2ChordsChords v2TabsTabs v2Tabs v3Tabs v4Ukulele
Jimi Hendrix-Little Wing

x-dead note
\-slide down
/-slide up
\\-slide down into nothingness 
h-hammer on
p-pull off
T-thumb on (use ure thumb on the top of the fret board)
H-harmony
()-ghost note
“-arpeggiate 
<<<<<<>>>>-gradual dive
*-palm mute
 i i think thats it, its pretty self explnitory
Intro

     H-]
|-x-12-]\\---|--------------------|------3h5p3-----------------------|
|-x-12-]\\---|-x-x----------------|------3--------3---3-3------------|
|-x--x-------|-x-x----0-----5-5\\-|----0-------0--4h5-5-4-5-4--------|
|---12\\-----|-x-x------5---5-5\\-|----------------------------5-----|
|----x-------|-x-x-0h2--5h7---7\\-|----------------------------------|
|---12\\---0-|--------------------|-/3---------------------------(3)-|
     T		           T 	       	  T			      

|---------------------------------|----------------------------------|
|-----------5---5-----------------|--8h10p8--------------------------|
|-------5---5h7-5-----------------|--7------7--------7-7---7-7-7-----|
|-----------------5h7-5---5-------|-----------9----7-7-7h9-7-7-7-(7)-|
|---5-7---7-----------5h7---------|-----------7-7-10--------10-7-----|
|-5-------------------------5h7\\-|0---------------------------------|
  T					

|----&#8221;-9--10-9------7-------------|-------------------------|
|----&#8221;(7)--7-7-7h10-7-7-----------|-------------------------|
|---7------7-7--------7-------7---|---5-5-5-5-----5---------|
|---9-----------------9-------8p7-|---7-9-7-5-5-5-5---------|
|---------------------------8-----|-----------8-7---x-------|
|-7---------------------x-6-------|-5-----------------5h7\\-|
  T                     T T         T

|-------5/7-5---5\3-------------|----------------|--------------------------|
|-------3/5-3---3\1-1---1-------|---------1-3p1--|-------------7---7-7------|
|-----0---------0\--0---0---0---|-----2-2---2----|-----------7-7---7-7-7--7-|
|-----5-5/7-5---5\3-----3---3---|-----2-2--------|---7---7---7-7h9-7-7-7--7-|
|-----------------------3---3---|-0h3-----------3|/5---5---5-----------10-7-|
|-//3---------0-------1---1---1-|----------------|--------------------------|
    T      

|---12\\-|---|
|---12\\-|---|
|----x---|---|
|-7--x---|---|
|-7--x---|---|
|-9-12\\-|-0-|


Verse

|-------------------------------|------------------------------|
|---0---------------------------|------------3---3---3---3-----|
|---x---------------------------|------------2---2h4-2---2---x-|
|---0h2p0h2-------2---2---------|------(5)-----5-------5-5---x-|
|-------------2-----0---5h7p5---|------------------------------|
|-0---------0---0-------------7-|-\3-3-----3---------------3---|
            ***********            ***
                                   T T     T               T
|-------------------|--------------------------|--7--9--7-(7)------------------|
|-------------------|-------8h10p8---8---------|-(7)(7)(7)-7---7---------6-----|
|---5-5-5-----5-----|-------7------7---7-------|-------------7-9p7-------7-----|
|---9-7-5-5---5h7p5-|--------------------7-----|-------------------9\8-8---(8)-|
|---------5h7-------|----------------------(7)-|-------------------------------|
|-5-----------------|-0-(0)--------------------|-7-----------------------------|
  T			           T				 
|-------------------------|---3----------3-3---------|-----------|
|-------------------------|---3----------1-1---------|-------1---|
|-----5-5-5---------------|---4h5-4----------0-------|-------x---|
|---7-9-7-5-5-5-5-5-5-5---|------(4)-5\\-------3-----|-----2-2-2-|
|-----------8-7-8-7-8-7h8-|----------------------3-3-|-0h3-------|
|-5-----------------------|-3------------------------|-3---------|
  T    		  T	                 T					 
|-----------------|---x-x-|---|
|-----------------|---x-x-|---|
|-7-7-7-7-7-7-7-7-|-7-x-x-|---|
|-7-7-7-7-7-7-7-7-|-7-----|---|
|-5-5-5-5-5-5-5-5-|-5-----|---|
|-----------------|-------|-0-|

The second verse

|----0-----0---------------------|-------------------------|
|---12h14-12--0-----0------------|---3/5\3/5-3/5-3---------|
|------------14-12--x------------|---2/4\2/4-2/4-2-(0)-----|
|------------------12h14-12------|-----------------(0------|
|---------------------------14\\-|-------------------------|
|-0------------------------------|-3-------------------3/5-|
				    ***	     			         T                   T T 
					     
|-------------------|------------------------------|---9-10-7-------------|
|-------------------|------------------------------|---7-7--7-7---------7-|
|-------------------|---8h10p8---------------------|---7------7-------8---|
|-------5-5---------|---7------9-9-----(9)-7-7h9-9-|----------------------|
|-------5-7-5-------|---9----------7-7-------------|------------(9)-------|
|-5-5-8-------5h7\\-|-0----------------------------|-7--------------6-----|
  T                                                  T              T


|-5-5-------------------------------|-------------5/7-5/3---------|
|-5-7p5-----5-----------------------|---3-----(3)-3/5-3/1---------|
|-------7---5-5-5-----5-5-----------|---2h5p2--0------------------|
|---------7---7-5-5---5-5-5-5-(5)\\-|-------------5/7-5/3---------|
|-----------------5h7---8-7-5--7-\\-|-----------------------------|
|-----------------------------------|-3-------------------1-1h3-3-|

|-----------|-------------------|-12-------(12)------|
|-----------|---------7-7-7-7---|-12-------(12)------|
|---5---5---|---7-----7-7-7-7---|-12-------(12)------|
|-5-5---5-5-|-7-7-7-7-7-7-7-7-7-|-12-------(12)------|
|-3---3---3-|-5---5-5---5---5-5-|-12-------(12)------|
|-----------|-------------------|---------------15\0-|
                                   <<<<<<>>>>
		        -  -1-1   

Solo
Guitar 1 (rhythm)

|---------------------0-----|---------------3---------|
|-0-0-0-0-0-----------0-----|-----3-3-3-3---3---3-----|
|-0-0-0-0-0-----------0-0---|-0-0-0-0-0-5h4-5p4-4-----|
|-2-2-2-2-2-------------0---|-0-0-5-5-5---------5-----|
|-2-2-2-2-2---------2---0---|-x-x-x-3-3---------x-----|
|-0-0-0-0-0-0-0-0-0-0---0h3-|-3-3-3-3-3---------3-3/5-|
                        T     T T T T T         T T T
|-------5h7-5-----------------------|-----7-7-7---7-------------|
|-5-5-5-5---5-5-5-5-5---------------|---8-8-8-8---8---8-8-------|
|-x-x-x-5-----5-5-7-5-5-5-5-5-------|---7-7-7-7---7-7-7-7-9p7---|
|-7-7-7-------7-7-----7-5-7-5-5---5-|-----9-9-9---9-9-9-9-----9-|
|-x-x-x-----------------------5h7-7-|-----7-7-7---7-----7-------|
|-5-5-5-----------------------------|-0---0-0-0-0-0-------------|
  T T  T
|-------7-9-10-9-7-------------|-------------------------|
|---7-7-7-7-7--7-7-7-6---------|-5-5-5-5---1-1-1---3---3-|
|---7-7-7--------7-x-------6---|-5-5-5-5-0-0-0-0---2---2-|
|---7-7------------9-8-----8-7-|-7-7-7-7-0-2-2---0-------|
|---9-9--------------------x---|-x-x-x-x---3-3---0-------|
|-7--------------------6-6-6---|-5-5-5-5---3-3-------2---|
                       ******
  T                    T         T T T T 
|---------------------------|-------------|-------------------------|
|-0-0-0-3-3-3\1-1-1-1-1-0-1-|-1-1-1-1-1-1-|-7-7-7-7-7-7-7-7-7-7-7-7-|
|-0-0-0-0-0-0-0-0-0-0-0-0---|-0-0-0-0-0-0-|-7-7-7-7-7-7-7-7-7-7-7-7-|
|-0-0-0-5-5-5\3-3-3-3-3-----|-2-2-2-2-2-2-|-7-7-7-7-7-7-7-7-7-7-7-7-|
|-x-x-x-x-x-x-x-x-x-x-x-----|-3-3-3-3-3-3-|-5-5-5-5-5-5-5-5-5-5-5-5-|
|-3-3-3-3-3-3\1-1-1-1-1-----|-3-3-3-3-3-3-|-5-5-5-5-5-5-5-5-5-5-5-5-|
  T     T   T
|---|-0-0-0-0-------------------|-------3-3---3-3---------|
|---|-0-0-0-0-8---8-8---8---3-3-|-3-3-3-3-3-3-3-3---------|
|-7-|-0-0-0-0-7h9-7-7---7---4-4-|-4-4-4-5-5-4-5-4--4------|
|-7-|-2-2-2-2-------7h9-7h9-5-5-|-5-5-5------------5------|
|-5-|-2-2-----------------------|-x-x-x------------x------|
|-5-|-0-0-----------------------|-3-3-3-----------(3)-3-4-|
                                  T T T               T T





|-5-5-5-7-5-----------------------------|--------------7-7-7-7-7-7-|
|-5-5-5-5-5-5-5-------------------------|---8-8-10p8-8-8-8-8-8-8-8-|
|-5-5-5-5-5-5---7-5---------------------|---7-7--7---7-7-7-7-7-7-7-|
|-7-7-7-7-7-7-------7-5h7-5-------------|---9-9--9---9-9-9-9-9-9-9-|
|-x-x-x---------------------7-5---------|--------------7-7-7-7-7-7-|
|-5-5-5-------------------------7-6-5\3-|-0------------0-0-0-0-0-0-|
  T T T

Guitar 2

         full  full                         full        full 
e-------/-----/\-----------------|----------/\----------/-------| 
B-.--15/---15/--(15)--12--12--15-|--12---12/--\--------/----15--| 
G--------------------------------|-------------\12--14/---------| 
D--------------------------------|------------------------------| 
A-.------------------------------|------------------------------| 
E--------------------------------|------------------------------| 

         full                  Full      full     ______ 
e-------/\--------------------/\---------/--\----/------\-------| 
B------/--\------------------/--\-------/----\--/--------\------| 
G---14/----\(14)------12--14/----\(14)-/------\(14)------(14)---| 
D-----------------14-----------------------------------------12-| 
A---------------------------------------------------------------| 
E---------------------------------------------------------------| 

                 full 
e---------------/------------------------------------------------ 
B--------------/------------------------------------------------- 
G-------12--14/------12--14----12-14--12p14-~~~~~---------------- 
D--14-----------------------14----------------------------------- 
A---------------------------------------------------------------- 
E---------------------------------------------------------------- 

                                          full 
e-----------------------------------------/-\-------------------- 
B----------------------------------------/---\------------------- 
G--12p14-~~~---14p16~~~---14p12~~~~---14/-----\-14--------------- 
D---------------------------------------------------------------- 
A---------------------------------------------------------------- 
E---------------------------------------------------------------- 

                                  full~~~                      
                                  _____ 
e--------------------------------/-----\------------------------- 
B-12p13p12---13p12--13p12-----15/-------\-(15)-12---------------- 
G--------------------------12------------------------------------ 
D---------------------------------------------------------------- 
A---------------------------------------------------------------- 
E---------------------------------------------------------------- 

        full            full slide                  /1/2\ 
e------/-----15--15-----/-15--------13-------------/-----\-------- 
B-----/----------------/-----\--------13-------13-/------(13)--13- 
G--14/--------------14/-------12----------12---12---------12---12- 
D----------------------------------------------------------------- 
A----------------------------------------------------------------- 
E----------------------------------------------------------------- 



e--------------------------------|--------------------------------------------- 
B---8p---p----------8p---p-------|------------10----10p--p----10--------10----- 
G---7p-9-p-7--------7p-9-p-7-----|------------9-----11p12p11--11--9-----9------ 
D--------------10------------10--|-/ 12---12-----12-----------------12------12- 
A--------------------------------|--------------------------------------------- 
E--------------------------------|--------------------------------------------- 

repeat and fade out chards slow dive with bar
e------12\--------------------|
B------12-\----/-----------.--|
G------12--\--/---------------|
D--12--12---\/----------------|
A--------------------------.--|
E-----------------------------|





Comments


Popular Jimi Hendrix tabs & chords
Up From The Skies Bass Tabs
Wild Thing Chords
A Merman Tabs
Changes 1 Tabs
Electric Ladyland 1 Tabs
Hey Baby Tabs
Little Wing 3 Tabs
Astro Man Ukulele
Burning Of The Midnight Lamp Ukulele
Remember Ukulele


Song lyrics



↑ Back to top | Tablatures and chords are parodies/interpretations of the original songs. You may use it for private study, scholarship, research or language learning purposes only
© 2014 AZChords.com Contact us | Privacy policy | DMCA | Add/correct tabs | Request tabs | Top 50 tabs