» » »

Jimi Hendrix, Jonnie Be Good Tabs (ver.1)

Artists:  A B C D E F G H I J K L M N O P Q R S T U V W X Y Z # 

Jonnie Be Good Tabs (ver.1)

Jimi Hendrix Tabs
 Rating:
4/5 (4 votes)
Jonnie Be Good lessons Tabs too difficult? Try these video lessons and learn fast
                E------------------4/5-5-5--4/5-5-5-4/5-5-5----------------------------------------------------------
B--------5---7---4/5-5-5--4/5-5-5-4/5-5-5---8--7--5--5------------------------------------------
G--4/6----------------------------------------------------------5-h-6-----4/6-6-6-4/6-6-6-4/6-6-6
D-------------------------------------------------------------------------7--5/7-7-7-5/7-7-7-5/7-7-7
A------------------------------------------------------------------------------------------------------------
E------------------------------------------------------------------------------------------------------------

E-------------------------
B-5------------5--------
G-5-h-6-h-7-5-h-6---
D-----------------------7
A------------------------
E-------------------------

Unison swoops

E----------------------------------------
B-------5--------5--------5---------5
G-7/9-----7/9------7/9------7/9----      X2
D---------------------------------------
A---------------------------------------
E---------------------------------------

or

E----------------------------------------
B-------5--------5--------5--------5--
G-7b------7b-----7b-------7b------      X2
D---------------------------------------
A---------------------------------------
E---------------------------------------

E-----------5-----8--7--5-------------------------------------------------------------
B-------5-----5-------------8-7-5--5-----------5------------5-----7-5--------------
G-7/9--------------------------------5--6--7----5--6--------5-----7-5--h-6--------
D------------------------------------------------7--------7--7-----7------------7----
A----------------------------------------------------------------------------------------
E----------------------------------------------------------------------------------------

E---------------------------------------
B---------------------------------------
G---------------------------------------
D---------------------------------------
A--7-7-7-7-7-7-7-7----------------
E---------------------------------------

Key

/ = slide
b = bend
h =hamer on
            
Submit corrections

comments powered by Disqus
↑ Back to top | Jimi Hendrix Tabs for Jonnie Be Good. Lyrics for acoustic guitar and electric guitar. Tablatures and chords are parodies/interpretations of the original songs. You may use it for private study, scholarship, research or language learning purposes only