» » »

Hound Dog Bass tabs (ver.1)

Artists:  A B C D E F G H I J K L M N O P Q R S T U V W X Y Z # 

Hound Dog Bass tabs (ver.1)

Jimi Hendrix
Rating:
0/5 (0 votes)

Tabs too difficult? Try these video lessons and learn fast.
                verse
G|-----------------------------------5-5-----5-5-------------|
D|---5-5-----5-5-----5-5-----5-5--------53------53---5-5-----|
A|------53------53------53------535-5-----5-5-----------53---|
E|5-5-----5-5-----5-5-----5-5---------------------5-5-----5-5|

  chorus
G|------------------------------------------|
D|---5-5------------------------------------|
A|------53/7-77-0765-55-053----------/7--75-|
E|5-5----------------------555555555-------5|

  verse variation
G|---------------------------------------------------------------------------------|
D|---------------------------3-353---3-353-----------------------------------------|
A|---3-353---3-353---3-3535-5-----5-5--------3-353---3-353/7-77-0765-55-053--------|
E|5-5-----5-5-----5-5---------------------5-5-----5-5------------------------------|

G----------------------------------------------------------------------------------|
D----------------------------------------------------------------------------------|
A-------------/7--75---------------------------------------------------------------|
E----555555555-------5-------------------------------------------------------------|
            
Tabs too difficult? Try these video lessons and learn fast.


comments powered by Disqus
↑ Back to top | Tablatures and chords are parodies/interpretations of the original songs. You may use it for private study, scholarship, research or language learning purposes only